Zacznij systematycznie uczyć się grać na gitarze razem ze stroną Moja nauka - będziesz miał/miała do niej dostęp po zalogowaniu się w serwisie

Dżaga - Virgin

Opracował -a: ratol,
Pochodzi z: http://www.mysongbook.com
Data publikacji: 2004-12-30 00:23
 
Moja nauka


Ups, problem :-/
Zaloguj się Mój śpiewnik


Intro
E||--10----12----14--------|--9---9---10--12--x-x-x-x-x-x-x-x-|
B||--10----10----10--------|--10--10--10--10--x-x-x-x-x-x-x-x-|
G||------------------------|----------------------------------|
D||------------------------|----------------------------------|
A||------------------------|----------------------------------|
E||------------------------|----------------------------------|



--7----9----10--------|--5--5--5--5--3--3--3--3--|
--7----7----7---------|--5--5--5--5--3--3--3--3--|
----------------------|--------------------------|
----------------------|--------------------------|
----------------------|--------------------------|Dalej po chwytach D A G A
----------------------|--------------------------|

Zwrotka


D A H G

Refren

D A H G                             }
D A i tabulatura która jest poniżej }2x

---------------------------|
---------------------------|
---------------------------|
--9--9--9------------------|
--9--9--9------------------|
--7--7--7--9--9--10--9--7--|



--------------------------|2x
--------------------------|
--------------------------|
--------------------5--5--|
--------------------5--5--|
--3--3--5--6--5--3--3--3--|

Dodaj komentarz ...i/lub link do filmiku video

Zaloguj się do serwisu
Ostatnie komentarze
1.
Marco89
2006-09-16 12:48
Ja też bym poprosił te mp3, jeżeli można marco890@o2.pl Z góry dziękuję!
2.
rodzina123
2006-06-03 20:07
Nagrałem dwie wersje : wolniutko i szybko ( mniej więcej wg oryginalnego tempa ) - intro ( wg mojej wcześniejszej rozpiski w komentarzu ) Koledze jak obiecałem - tak przesyłam ...teraz ... Pozdrawiam !
3.
rodzina123
2006-06-03 13:40
Jeszcze dziś nagram to wolno - szkoleniowo - tylko założę w elektryku struny nowe i wyreguluję sprężyny pod mostkiem ( zawieszony - Floyd Rose ... ) Wieczorkiem będzie mp3 i podeślę ... Pozdrawiam !
4.
rodzina123
2006-05-17 20:40
Jutro nagram mp3 z intro do tej piosenki w dwóch wersjach : w tempie oryginalnym i w mocno zwolnionym - ale od D ( oryginalna tonacja ) Pozdrawiam !
5.
rodzina123
2006-05-17 16:15
Jeśli grasz od C-dur , a w opracowaniu i wcześniejszych komentarzach grano od D-dur - to nie grasz wcale o dwa tony nizej - tylko o jeden ton niżej ( za to o dwa półtony ) półton od D do C# + półton od C# do C = cały jeden ton ! Pozdrawiam !
6.
gelokud
2006-05-17 15:47
Ja to gram o dwa tony niżej: Zwr: C G a F Mostek: G F G Gis B C Ref: C G a F - 4x Aaa-aaa!!!:) ---> C G a G C G a F Doda forever!!!:O)
7.
rodzina123
2006-01-21 18:31
piosenka " Dżaga " to nie tylko zwrotka i refren ( od D ) ( i rzeczywiście z h-mollem a nie H - durem ) jest jeszcze przejście ze zwrotki do refrenu - grane tak | A | G | A | B C | - i dopiero refren a jednak wyjście z refrenu grane pojedynczymi , przesterowanymi dźwiękami : e----x-----x------x-----x-- --x-----x-----x-----x-- h---------------------------- ------------------------ g---------------------------- ------------------------ d---------------------------- ------------------------ a--2----2--4--4--5--------- --------------2--------- e----------------------------3----3--5--5------------
8.
denu
2006-01-05 01:38
dlaczego usunięto moje opracowanie utworu Dżaga? to które jest teraz nie jest kompletne jeśli chodzi o akordy (np nie uwzględnia podniesionej tonacji pod koniec utworu) :(
9.
rodzina123
2006-01-04 18:29
moim zdaniem intro leci tak : e-10---10-12-12--14----9--10--9--12--- h-10---10-10-10--10----10-10-10-10--- g-11---11-11-11--11----9---9--9---9---- d-------------------------------------------- a-------------------------------------------- e-------------------------------------------- e-7---7-9-9--10----5---5-5-5--3-3-3-3-- h-7---7-7-7---7----5---5-5-5--3-3-3-3-- g-7---7-7-7---7----6---6-6-6--4-4-4-4-- d--------------------7---7-7-7--5-5-5-5-- a------------------------------------------- e------------------------------------------- e-0------------------------3---3-3-------------------- h-3---8--8-7--5---5-5----3---3-3---8--7------------ g-2---7--7-7--2---2-2----0---0-0---7--7---9---7--- d-0---7--7-7--2---2-2----0---0-0---7--7------------ a---------------0---0-0----2---2-2------------------- e---------------------------3---3-3------------------- potem od razu wchodzi riff D5
10.
denu
2005-02-24 08:21
pafcio, zajrzyj do mojego opracowania Dżagi (piętro wyżej).Ono jest dobre.
Wszelkie materiały i wypowiedzi zamieszczone na www.chords.pl są własnością ich autorów.