Zacznij systematycznie uczyć się grać na gitarze razem ze stroną Moja nauka - będziesz miał/miała do niej dostęp po zalogowaniu się w serwisie

Szansa - Virgin

Opracował -a: michicybo,
Redaktor: Tomek Pietrzkowski,
Pochodzi z: http://www.chords.pl
Data publikacji: 2006-07-23 13:12
 
Moja nauka


Ups, problem :-/
Zaloguj się Mój śpiewnik


Wstęp:

Fis  dis  H  Cis  dis  Cis  Fis    Fis Cis/F


Intro (by Patryk Max)
E|----------------------------------------------------------------------------------
B|----------------------------------------------------------------------------------
G|----13-10-11~----13-10-11~-----13-10-11--11-13-13b15-13-15-13-11-15--15-13-11-13~-
D|-11-----------11------------11----------------------------------------------------
A|----------------------------------------------------------------------------------
E|----------------------------------------------------------------------------------

E|-----------------------------
B|-----------------------------
G|----13-10-11~----11-10-------
D|-11--------------------13----
A|-----------------------------
E|-----------------------------



Zwrotka:

dis  b
H  Fis  Cis
dis  b
H  Fis  Cis
Fis  Cis  Gis  H
Fis  Cis  Gis  H


Refren:

Fis  dis  H  Cis  dis  Cis
Fis  dis  H  Cis  dis  Cis
Fis  B  H  Cis  H  Cis  Fis


Zwrotka, refren...


Outro (by Patryk Max)
E|----------------------------------------------------------------------------------
B|----------------------------------------------------------------------------------
G|----13-10-11~----13-10-11~-----13-10-11--11-13-13b15-13-15-13-11-15--15-13-11-13~-
D|-11-----------11------------11----------------------------------------------------
A|----------------------------------------------------------------------------------
E|----------------------------------------------------------------------------------

E|-----------------
B|-----------------
G|----13-10-11~----
D|-11--------------
A|-----------------
E|-----------------

Dodaj komentarz ...i/lub link do filmiku video

Zaloguj się do serwisu
Ostatnie komentarze
1.
ares13
2007-05-05 12:33
Ref: G G e e C D G D Zw: e e h h C G C przejście G D C C szanse znów dostałam G D C D ty ją ciągle masz
2.
Morficzek
2007-03-06 10:29
Na wejściu na refren akustyk czy elktroakustyk czy tez taka barwe poprost sobie właczył gitarzysta tej grupy gra rozłożone akordy pierwszy dzwiek akordu a nastepnie po dolnych g h i e tak mi sie wydaje:) pozdrawiam!
3.
edyta
2006-12-06 14:59
no a gdzie sa pozadne taby bo w przejsciu na refren cos sie gra tak slychac jakby byl to akustyk ???? gdzie sa taby ???? jak ktos wie to niech mi poda
4.
aga5bak
2006-08-06 13:20
cze lubie ten zespół, piosenki na ogół są fane, ale nie znam ich wszystkich nara
Wszelkie materiały i wypowiedzi zamieszczone na www.chords.pl są własnością ich autorów.