Zacznij systematycznie uczyć się grać na gitarze razem ze stroną Moja nauka - będziesz miał/miała do niej dostęp po zalogowaniu się w serwisie

Szansa - Virgin

Opracował -a: akordzik,
Redaktor: MartuSka,
Pochodzi z: http://www.chords.pl
Data publikacji: 2007-09-21 18:13
 
Moja nauka


Ups, problem :-/
Zaloguj się Mój śpiewnik


(Tam gdzie są gwiazdki * to są potworzenia)

Intro

E||---------------------------|---------------------------|
B||---------------------------|---------------------------|
G||--------13--10----11~------|--------13--10----11~------|
D||--11-----------------------|--11-----------------------|
A||---------------------------|---------------------------|
E||---------------------------|---------------------------|


|--------------------------|--------------------------|
|--------------------------|--------------------------|
|--------13--10----11------|--11----13--15----13------|
|--11----------------------|--------------------------|
|--------------------------|--------------------------|
|--------------------------|--------------------------|



----------------------------|----------------------------|
----------------------------|----------------------------|
--15----13--11------15--15--|--15--15--15----13----13----|
----------------------------|----------------------------|
----------------------------|----------------------------|
----------------------------|----------------------------|



-----------------------------|
-----------------------------|
---L--------13--10----11~----|
------11---------------------|
-----------------------------|
-----------------------------|

Zwrotka

    PM PM PM PM PM PM PM PM    PM PM PM PM PM PM PM PM

|---------------------------|--------------------------|
|---------------------------|--------------------------|
|*--------------------------|--------------------------|
|*--8--8--8--8--8--8--8--8--|--8--8--8--8--8--8--8--8--|
|---6--6--6--6--6--6--6--6--|--6--6--6--6--6--6--6--6--|
|---------------------------|--------------------------|


  PM PM PM PM PM PM PM PM    PM PM PM PM PM PM PM PM

--------------------------|--------------------------|
--------------------------|--------------------------|
--------------------------|--------------------------|
--3--3--3--3--3--3--3--3--|--3--3--3--3--3--3--3--3--|
--1--1--1--1--1--1--1--1--|--1--1--1--1--1--1--1--1--|
--------------------------|--------------------------|


  PM PM PM PM PM PM PM PM    PM PM PM PM PM PM PM PM

--------------------------|--------------------------|
--------------------------|--------------------------|
--------------------------|--------------------------|
--4--4--4--4--4--4--4--4--|--------------------------|
--2--2--2--2--2--2--2--2--|--4--4--4--4--4--4--4--4--|
--------------------------|--2--2--2--2--2--2--2--2--|


  PM PM PM PM PM PM PM PM    PM PM PM PM PM PM PM PM

--------------------------|---------------------------||
--------------------------|---------------------------||
--------------------------|--------------------------*||
--6--6--6--6--6--6--6--6--|--6--6--6--6--6--6--6--6--*||
--4--4--4--4--4--4--4--4--|--4--4--4--4--4--4--4--4---||
--------------------------|---------------------------||


   PM PM PM PM PM PM PM PM    PM PM PM PM PM PM PM PM

---------------------------|--------------------------|
---------------------------|--------------------------|
*--------------------------|--------------------------|
*--------------------------|--6--6--6--6--6--6--6--6--|
---4--4--4--4--4--4--4--4--|--4--4--4--4--4--4--4--4--|
---2--2--2--2--2--2--2--2--|--------------------------|


  PM PM PM PM PM PM PM PM    PM PM PM PM PM PM PM PM

--------------------------|---------------------------||
--------------------------|---------------------------||
--------------------------|--------------------------*||
--------------------------|--4--4--4--4--4--4--4--4--*||
--6--6--6--6--6--6--6--6--|--2--2--2--2--2--2--2--2---||
--4--4--4--4--4--4--4--4--|---------------------------||

Refren

      PM PM PM PM PM PM PM PM    PM PM PM PM PM PM PM PM

E||---------------------------|--------------------------|
B||---------------------------|--------------------------|
G||*--------------------------|--------------------------|
D||*--------------------------|--------------------------|
A||---4--4--4--4--4--4--4--4--|--4--4--4--4--4--4--4--4--|
E||---2--2--2--2--2--2--2--2--|--2--2--2--2--2--2--2--2--|


  PM PM PM PM PM PM PM PM    PM PM PM PM PM PM PM PM

--------------------------|--------------------------|
--------------------------|--------------------------|
--------------------------|--------------------------|
--8--8--8--8--8--8--8--8--|--8--8--8--8--8--8--8--8--|
--6--6--6--6--6--6--6--6--|--6--6--6--6--6--6--6--6--|
--------------------------|--------------------------|


  PM PM PM PM PM PM PM PM    PM PM PM PM PM PM PM PM

--------------------------|--------------------------|
--------------------------|--------------------------|
--------------------------|--------------------------|
--4--4--4--4--4--4--4--4--|--6--6--6--6--6--6--6--6--|
--2--2--2--2--2--2--2--2--|--4--4--4--4--4--4--4--4--|
--------------------------|--------------------------|


  PM PM PM PM PM PM PM PM    PM PM PM PM PM PM PM PM

--------------------------|---------------------------||
--------------------------|---------------------------||
--------------------------|--------------------------*||
--8--8--8--8--8--8--8--8--|--6--6--6--6--6--6--6--6--*||
--6--6--6--6--6--6--6--6--|--4--4--4--4--4--4--4--4---||
--------------------------|---------------------------||


  PM PM PM PM PM PM PM PM    PM PM PM PM PM PM PM PM

--------------------------|--------------------------|
--------------------------|--------------------------|
--------------------------|--------------------------|
--------------------------|--------------------------|
--4--4--4--4--4--4--4--4--|--4--4--4--4--4--4--4--4--|
--2--2--2--2--2--2--2--2--|--2--2--2--2--2--2--2--2--|


  PM PM PM PM PM PM PM PM    PM PM PM PM PM PM PM PM

--------------------------|--------------------------|
--------------------------|--------------------------|
--------------------------|--------------------------|
--3--3--3--3--4--4--4--4--|--6--6--6--6--6--6--6--6--|
--1--1--1--1--2--2--2--2--|--4--4--4--4--4--4--4--4--|
--------------------------|--------------------------|


  PM PM PM PM PM PM PM PM    PM PM PM PM PM PM PM PM

--------------------------|--------------------------|
--------------------------|--------------------------|
--------------------------|--------------------------|
--4--4--4--4--4--4--4--4--|--6--6--6--6--6--6--6--6--|
--2--2--2--2--2--2--2--2--|--4--4--4--4--4--4--4--4--|
--------------------------|--------------------------|


  PM PM PM PM PM PM PM PM

--------------------------||
--------------------------||
--------------------------||
--------------------------||
--4--4--4--4--4--4--4--4--||
--2--2--2--2--2--2--2--2--||

Dodaj komentarz ...i/lub link do filmiku video

Zaloguj się do serwisu
Wszelkie materiały i wypowiedzi zamieszczone na www.chords.pl są własnością ich autorów.