Zacznij systematycznie uczyć się grać na gitarze razem ze stroną Moja nauka - będziesz miał/miała do niej dostęp po zalogowaniu się w serwisie

When you are gone - Avril Lavigne

Dodał -a: GoldSilence,
Redaktor: Seba,
Pochodzi z: http://tabs.ultimate-guitar.com/a/avril_lavigne/when_your
Data publikacji: 2011-05-10 18:00
 
Moja nauka


Ups, problem :-/
Zaloguj się Mój śpiewnik
e|-14h15-12-14h15-12--|-14h15-12----14h15-22-|
B|--------------------|----------------------|
G|--------------------|----------12----------|
D|--------------------|-14----------14-------| (x3)
A|-15-----------------|----------------------|
E|--------------------|----------------------|
then

     D
e|----------15-14----------|
B|-------15-------15-------|
G|----14-------------14----|
D|-12-------------------12-|
A|-------------------------|
E|-------------------------|


Verse 1:
  G   D/F#  Em
i...
      C     D
i...
      G     D/F#   Em
and...
            C      D
and...


Refrain:
     Am     G/B
when...
       C    D
do...


Chorus:
         C   Em   D
when...
are...
         C   Em   D
when... 
         Am  C
when...
   G     D/F#  C  D
to...

i...


(Repeat Intro)




Bridge:
Bm        C    G
  We...
          D    B7
I...
  Em
I...
C
Everything...
A/C#       D
I can...


;D
Dodał: Madnessleen, 2020-02-06 18:04
Opracowania video z komentarzy

Dodaj komentarz ...i/lub link do filmiku video

Zaloguj się do serwisu
Wszelkie materiały i wypowiedzi zamieszczone na www.chords.pl są własnością ich autorów.