Zacznij systematycznie uczyć się grać na gitarze razem ze stroną Moja nauka - będziesz miał/miała do niej dostęp po zalogowaniu się w serwisie

Girlfriend - Avril Lavigne

Opracował -a: towarzysz,
Redaktor: Miłosz,
Data publikacji: 2007-04-21 00:10
 
Moja nauka


Ups, problem :-/
Zaloguj się Mój śpiewnik
Intro:
          [  riff 1 ]
   D5 ...  D5  F#5 G5
e|-----|---------------|
B|-----|---------------|
G|--7--|---------------|
D|--7--|--\12--/4--\5--|
A|--5--|--\12--/4--\5--|
E|-----|--\10--/2--\3--|

D5 (tylko raz uderzamy)
Hey .... You!
I ... girlfriend
No ... way
I ... one
Hey ... You!
I .... girlfriend [riff 1]

D5 (tylko raz uderzamy)
Hey ... You!
I .... me
No ... way
No, ... secret
Hey ... You!
I .... girlfriend [riff 1]


   D5   A5   B5   G5 (używamy chwytów)
e|----------------------|
B|----------------------|
G|--7----2----4---------|
D|--7----2----4----5----|
A|--5----0----2----5----|
E|-----------------3----|

(Gitara 1)
e|---------------------------------------------------|
B|---------------------------------------------------|
G|----7-7---7-7---7-7---7-7---2-2---2-2---2-2---2-2--|
D|----7-7---7-7---7-7---7-7---2-2---2-2---2-2---2-2--|
A|--5-----5-----5-----5-----0-----0-----0-----0------|
E|---------------------------------------------------|

e|---------------------------------------------------|
B|---------------------------------------------------|
G|----4-4---4-4---4-4---4-4--------------------------|
D|----4-4---4-4---4-4---4-4---5-5---5-5---5-5---5-5--|
A|--2-----2-----2-----2-------5-5---5-5---5-5---5-5--|
E|--------------------------3------3-----3-----3-----|

You're ...fine
I want ... mine
You're ... delicious
I think .... time
You're ... addictive
Don't ... know
What ... do
To ... alright

(2 gitare wchodzi w podobnym rytmie)
 (gramy pierwszą część po D5 A5 B5, drugi po G5)
e|-----........------|
B|-----........------|
G|--7~-........------|
D|--×--........-5----|
A|--5~-........-×----|
E|-----........-3----|

Don't ...pretend
I .... know
I'm .... precious
And ... Yeah
I'm .... princess
I can ... me too
And .... right

   Bm    F#   A    G  A5
e|--2----2----5----3-----|
B|--3----2----5----3-----|
G|--4----3----6----4-----|
D|--4----4----7----5--7--|
A|--2----4----7----5--7--|
E|-------2----5----3--5--|

She's .... whatever
You .... better
I think we should get together now
Well .... about


   (3X a potem gramy riff)
   D5 A5 B5 G5       D5  F#5 G5
e|--------------| |---------------|
B|--------------| |---------------|
G|--7-----------| |---------------|
D|--7--7-/7-\5--| |--\12--/4--\5--|
A|--5--7-/×-\5--| |--\12--/4--\5--|
E|-----5-/9-\3--| |--\10--/2--\3--|

Hey ... You
I .... girlfriend
No ... way
I .... one
Hey ... You
I ... your girlfriend

Hey ... You
I... you like me
No ... way
No, .... secret
Hey ... You
I want ... girlfriend


 D5   A5   B5   G5 (tak samo jak przedtem)

I can ... way
I see ... at me
And ... away
I know .... of me
I know .... time
Again ... again

So ... here
and ... hear
Better, ... disappear
I don't .... name
ever again

   Bm    F#   A    G  A5

She's ... whatever
You ... better
I ... together now
Well ... about


   (3X a potem gremy riff)
   D5 A5 B5 G5       D5  F#5 G5

Hey ... You
I ... girlfriend
No ... way
I think ... one
Hey ... You
I ... girlfriend

Hey ... You
I ... like me
No ... way
No, ... secret
Hey ... You
I ... girlfriend

In a ... finger
'Cause ... better
There's no ... sink in
She's so ... thinking?

In a ... finger
'Cause ... better
There's ... sink in
She's so ... thinking?

D5
Hey ... You
I don't ... girlfriend
No ... way
I think ... one
Hey ... You
I ... girlfriend [riff1]

(Przed końcem)
   D5 A5 B5 G5
e|--------------|
B|--------------|
G|--7-----------|
D|--7--7-/7-\5--|
A|--5--7-/×-\5--|
E|-----5-/9-\3--|

(No Way)

Hey ... You
I ... like me
No ... way
No, ... secret
Hey ... You
I want ... girlfriend

Hey ... You
I don't ... ( No Way!)
No ... way
I think ... (Hey!)
Hey ... You
I could ... (No Way!)
...
...

zakończenie z D5 oczywiście ;)

Dodaj komentarz ...i/lub link do filmiku video

Zaloguj się do serwisu
Ostatnie komentarze
1.
rodzina123
2009-02-05 11:02
Tu na stronie masz KURS - tam znajdziesz artykuł : " Jak czytać tabulaturę " ... Polecam poczytać... Pozdro.
2.
martaso992
2009-02-04 22:01
Czy ktoś może mi wytłumaczyć,, jak czytać ten zapis? Bo ja tego nie umiem :(
3.
Eloise
2007-12-30 19:50
Dzięki!!!!!!
4.
Eloise
2007-12-30 19:49
Dzięki!!!!!!
Wszelkie materiały i wypowiedzi zamieszczone na www.chords.pl są własnością ich autorów.