Zacznij systematycznie uczyć się grać na gitarze razem ze stroną Moja nauka - będziesz miał/miała do niej dostęp po zalogowaniu się w serwisie

Taki kraj (tab) - Enej

Opracował -a: lehio,
Dodał -a: lehio,
Redaktor: Tomek Pietrzkowski,
Pochodzi z: http://www.chords.pl
Data publikacji: 2010-07-26 09:23
 
Moja nauka


Ups, problem :-/
Zaloguj się Mój śpiewnik
intro: f Cis C  (x4)
       f

zwrotka: f Cis C
         b C b f
         b f  Cis C (x2)

refren:  f Cis C  (x4)

solo:
E|-------------------------------------------
B|-5-----3--5--6-----------------------------
G|----------------6--5-----------------------
D|-------------------------3--4--3-----------
A|-------------------------------------------
E|-------------------------------------------

E|-------------------------------------------
B|-5-----3--5--6-----------------------------
G|----------------6--5-------9--10--9--------
D|-------------------------------------------
A|-------------------------------------------
E|-------------------------------------------

E|-------------------------------------------
B|-5-----3--5--6-----------------------------
G|----------------6--5-----------------------
D|-------------------------3--4--3-----------
A|-------------------------------------------
E|-------------------------------------------

po solo:

f Cis C

Dodaj komentarz ...i/lub link do filmiku video

Zaloguj się do serwisu
Wszelkie materiały i wypowiedzi zamieszczone na www.chords.pl są własnością ich autorów.