Zacznij systematycznie uczyć się grać na gitarze razem ze stroną Moja nauka - będziesz miał/miała do niej dostęp po zalogowaniu się w serwisie

Taki Kraj (tab) - Enej

Opracował -a: disses,
Dodał -a: disses,
Redaktor: Seba,
Pochodzi z: http://www.chords.pl
Data publikacji: 2011-07-15 08:56
 
Moja nauka


Ups, problem :-/
Zaloguj się Mój śpiewnik
Opracowanie zrobione przeze mnie i moim zdaniem całkiem fajnie to brzmi ;)

http://www.youtube.com/watch?v=yBrUsPjmc9E&feature=channel_video_title


Intro:  x4

E||-------------------------------------
B||-------------------------------------
G||-------------------------------------
D||--3-----------11-----------10~-------
A||--3-----------11-----------10~-------
E||--1-----------9------------8~--------

Na końcu intra (przejście do zwrotki) :

E||--------------------
B||--------------------
G||--------------------
D||--3----3---3----3---
A||--3----3---3----3---
E||--1----1---1----1---


Zwrotka:  x2

E||-----------------------------------------------------------------------
B||-----------------------------------------------------------------------
G||------------------6-----------------5-----------------5----------------
D||-3----------------6-----------------5-----------------5----------------
A||-3----------------4---4-4-4-4-4-4---3---3-3-3-3-3-3---3--3-3-3-3-3-3---
E||-1---1-1-1-1-1-1-------------------------------------------------------

E||----------------------------------------------------------------------------------
B||----------------------------------------------------------------------------------
G||---3----------------5--------------------3----------------------------------------
D||---3----------------5--------------------3-------------------3--------------------
A||---1--1-1-1-1-1-1---3---3-3-3-3-3-3------1---1-1-1-1-1-1-----3--------------------
E||-------------------------------------------------------------1-----1-1-1-1-1-1----

E||-----------------------------------------------------------------
B||-----------------------------------------------------------------
G||---3-------------------------------------------------------------
D||---3------------------3~------------11~--------------10~---------
A||---1---1-1-1-1-1-1----3~------------11~--------------10~---------
E||----------------------1~-------------9~---------------8~---------


Ref: x4

Identyczne powerchordy jak w "Intro", przy czym bicie jest powolne, w stylu "ska".

Powyższe motywy powtarzają się przez cały utwór. Nic nowego już nie będzie.... ;)

.... oprócz solówki ;)

Solo:

"/"  - ten znak to slajd po strunie w górę progu

A||------------------------------------------------------
B||------------------------------------------------------
G||------------------------------------------------------
D||------5/10~----5/10-11-10--8--6--5~-------------------
A||------------------------------------------3h4p3~------
E||------------------------------------------------------

A||------------------------------------------------------
B||------------------------------------------------------
G||------------------------------------------9h10p9~-----
D||------3/10~----5/10-11-10--8--6--5~-------------------
A||------------------------------------------------------
E||------------------------------------------------------

A||------------------------------------------------------
B||------------------------------------------------------
G||------------------------------------------------------
D||------5/10~----5/10-11-10--8--6--5~-------------------
A||-------------------------------------------3h4p3~-----
E||------------------------------------------------------

Potem już tylko w kółko grane są akordy intra i refrenu.
Miłego grania ;)
Dodał: disses, 2011-11-26 01:01
Opracowania video z komentarzy

Dodaj komentarz ...i/lub link do filmiku video

Zaloguj się do serwisu
Wszelkie materiały i wypowiedzi zamieszczone na www.chords.pl są własnością ich autorów.