Zacznij systematycznie uczyć się grać na gitarze razem ze stroną Moja nauka - będziesz miał/miała do niej dostęp po zalogowaniu się w serwisie

Mój tata - generał - Artur Rojek

Opracował -a: Paweł Dąbrowski,
Dodał -a: Paweł Dąbrowski,
Redaktor: Tomek Pietrzkowski,
Pochodzi z: http://www.chords.pl
Data publikacji: 2009-09-07 00:01
 
Moja nauka


Ups, problem :-/
Zaloguj się Mój śpiewnik
Ja tą piosenkę gram tak:

zwrotka

E||--7-----4-----5-----7---
H||--7-----4-----7-----9---
G||--9-----6-----7-----9---
D||--9-----6-----6-----8---
A||--7-----4-----5-----7---
E||--7-----4-----5-----7---

refren
   Gdy...   Wierzyłem...
E||------5-----------7-----------||
H||------7-----------9-----------||
G||------7-----------9-----------||
D||------6-----------8-----------||
A||------5-----------7-----------||
E||------5-----------7-----------||



W myślach...        na policzkach...     Wszędzie...
E||------4-------------------2-------------------5-----------7-||
H||------4-------------------2-------------------7-----------9-||
G||------6-------------------4-------------------7-----------9-||
D||------6-------------------4-------------------6-----------8-||
A||------4-------------------2-------------------5-----------7-||
E||------4-------------------2-------------------5-----------7-||

Wszelkie uwagi mile widziane:)

Dodaj komentarz ...i/lub link do filmiku video

Zaloguj się do serwisu
Ostatnie komentarze
1.
Paweł Dąbrowski
2009-09-09 20:50
Tak, to prawda. Zapis jest prawidłowy (taki jak gram), tylko że struny oznaczone błędnie. Powinno być od góry E A D G B E.
2.
Matkub
2009-09-08 15:55
wszystko gra tylko chyba sie pomyliles przy zapisie akordow. W sensie A-dur i H-dur na 5 i 7 progu sa zapisane do gory nogami ;)
Wszelkie materiały i wypowiedzi zamieszczone na www.chords.pl są własnością ich autorów.