Zacznij systematycznie uczyć się grać na gitarze razem ze stroną Moja nauka - będziesz miał/miała do niej dostęp po zalogowaniu się w serwisie

Cisza i wiatr (tab) - Artur Rojek

Opracował -a: liluchna,
Dodał -a: liluchna,
Redaktor: Seba,
Pochodzi z: http://www.chords.pl
Data publikacji: 2011-02-05 10:11
 
Moja nauka


Ups, problem :-/
Zaloguj się Mój śpiewnik
Wstęp:
A – E – h – D                 x2
|--9---9-7----------------9---12-9-7-----------------
|---10-----10--10--10-----10--------10--10-----------
|--------------9----7---------------------9----7-----
|----------------------------------------------------
|----------------------------------------------------
|----------------------------------------------------

Zwrotka1:
A E h D   x2

Ref:
A E h D fis E A   x2

A – E – h – D
|--9---9-7-----------12--------
|---10-----10--10--------------
|--------------9----7----------
|------------------------------
|------------------------------
|------------------------------

Zwrotka2:
A E h D   x2

Ref:
A E h D fis E A
A E h D fis E D

Przejście:
D A E h A E A
A E
h D  ( dłuższe zatrzymanie na D)  A

Ref:
A E h D fis E A   x2

A – E – h – D
|--9---7-9-7-----------------
|---10-------10-7-9----------
|---------------------9/11---
|----------------------------
|----------------------------
|----------------------------

A
Dodał: Olga Stolarek, 2017-10-06 15:14
Opracowania video z komentarzy

Dodaj komentarz ...i/lub link do filmiku video

Zaloguj się do serwisu
Ostatnie komentarze
1.
liluchna
2011-02-05 11:57
Przepraszam Was znowu, ale poprzesuwały mi sie taby jak wstawiałam ;/ Więc poprawiam :) 1. A – E – h – D x2 |--9---9-7-----------9---12-9-7-------------- |---10-----10--10-----10--------10---10--10-- |------------9---7----------------9----7----- |-------------------------------------------- |-------------------------------------------- |-------------------------------------------- 2. A – E – h – D |--9---9-7-----------12------ |---10-----10---10----------- |------------9----7---------- |---------------------------- |---------------------------- |----------------------------
Wszelkie materiały i wypowiedzi zamieszczone na www.chords.pl są własnością ich autorów.