Zacznij systematycznie uczyć się grać na gitarze razem ze stroną Moja nauka - będziesz miał/miała do niej dostęp po zalogowaniu się w serwisie

Black Metal - Venom

Opracował -a: Riffx,
Redaktor: Riffx,
Data publikacji: 2007-07-04 00:02
 
Moja nauka


Ups, problem :-/
Zaloguj się Mój śpiewnik
Riff A/Intro

E |----------------|----------------|----------------|----------------|
B |----------------|----------------|----------------|----------------|
G |-3--------------|----------------|-2--------------|----------------|
D |-3--------------|----------------|-2--------------|----------------|
A |----------------|----------------|----------------|----------------|
E |-----3-3-3-3-3-3|-3-3-3-3-3-3-3--|-----3-3-3-3-3-3|-3-3-3-3-3-3-3--|

E |----------------|----------------|----------------|----------------|
B |----------------|----------------|----------------|-3----3----3----|
G |-1--------------|----------------|----------------|-2----2----2----|
D |-1--------------|----------------|----------------|-0----0----0----|
A |----------------|----------------|----------------|----------------|
E |-----3-3-3-3-3-3|-3-3-3-3-3-3-3--|-1----3----1----|----------------|

Riff B/Przejście

  |    3 times  |
E |----------------|----------------|----------------|----------------|
B |----------------|----------------|----------------|----------------|
G |-5--------------|----------------|----------------|----------------|
D |-5--------------|----------------|----------------|----------------|
A |----------------|----------------|-10\--7-------5-|---7-----7------|
E |-----5-5-5-5-5-5|-5-5-5-5-5-5-5--|-8-\--5-------3-|---5-----5------|

Riff C/Refren

E |----------------|----------------|----------------|----------------|
B |----------------|----------------|----------------|----------------|
G |----------------|----------------|-2--------------|----------------|
D |----------------|----------------|-3--------------|----------------|
A |-5--------------|----------------|-0--------------|----------------|
E |-3---3-3-3-3-3-3|-3-3-3-3-3-3-3--|----------------|----------------|

E |----------------|----------------|----------------|----------------|
B |----------------|----------------|----------------|----------------|
G |-3--------------|----------------|-4------------5-|-------4--------|
D |-3--------------|----------------|-3------------5-|-------3--------|
A |----------------|----------------|----------------|----------------|
E |----------------|----------------|----------------|----------------|

Riff D

E |----------------|----------------|----------------|----------------|
B |----------------|----------------|----------------|----------------|
G |----------------|----------------|----------------|----------------|
D |----------------|----------------|-5-------5------|-5-------5------|
A |-5--------------|----------------|-5-------5------|-5-------5------|
E |-3---3-3-3-3-3-3|-3-3-3-3-3-3-3--|-3-------3------|-3-------3------|


E |----------------|----------------|----------------|----------------|
B |----------------|----------------|----------------|----------------|
G |-7--------------|----------------|----------------|----------------|
D |-7------r e s t-|----------------|----------------|----------2-----|
A |-5--------------|----------------|----------------|----------2-----|
E |----------------|----------------|----------------|----------0-----|

E |----------------|----------------|----------------|----------------|
B |----------------|----------------|----------------|----------------|
G |----------------|----------------|----------------|----------------|
D |-3--------------|----------------|----------------|----------3-----|
A |-3------r e s t-|----------------|----------------|----------3-----|
E |-1--------------|----------------|----------------|----------1-----|

E |----------------|----------------|----------------|----------------|
B |----------------|----------------|----------------|----------------|
G |----------------|----------------|----------------|----------5-----|
D |-5------r e s t-|----------------|----------------|----------5-----|
A |-5--------------|----------------|----------------|----------3-----|
E |-3--------------|----------------|----------------|----------------|

E |----------------|----------------|----------------|----------------|
B |----------------|----------------|----------------|----------------|
G |-7--------------|----------------|----------------|----------------|
D |-7--------------|----------------|----------------|----------------|
A |-5--------------|----------------|----------------|----------------|
E |----------------|----------------|----------------|-------------x\-|

Riff E

E |----------------|----------------|----------------|----------------|
B |----------------|----------------|----------------|----------------|
G |----------------|----------------|----------------|----------------|
D |----------------|----------------|----------------|----------------|
A |-7--------------|----------------|----------------|-5----5----6----|
E |-5---5-5-5-5-5-5|-5-5-5-5-5-5-5-5|-5-5-5-5-5-5-5-5|-3----3----4----|

E |----------------|----------------|----------------|----------------|
B |----------------|----------------|----------------|----------------|
G |----------------|----------------|----------------|----------------|
D |----------------|----------------|----------------|----------------|
A |-7--------------|----------------|----------------|----------------|
E |-5---5-5-5-5-5-5|-5-5-5-5-5-5-5-5|-5-5-5-5-5-5-5-5|-5-5-5-5-5-5-5-5|

E |----------------|----------------|----------------|----------------|
B |----------------|----------------|----------------|----------------|
G |-7-----------5--|----------------|----------------|----------------|
D |-7-----------5--|----------------|----------------|----------------|
A |----------------|----------------|----------------|----------------|
E |----------------|----------------|----------------|----------------|

  |                      | x3 |
E |----------------|----------------|----------------|-------|
B |----------------|----------------|----------------|-------|
G |----------------|----------------|----------------|-------|
D |----------------|----------------|----------------|-------|
A |----------------|----------------|----------------|-------|
E |-6p5p3-6p5p3-6p5p3-6p5p3--6-6-3--|-6p5p3-6p5p3-6p5p3-6p5p3|



E |----------------|----------------|----------------|----------------|
B |----------------|----------------|----------------|----------------|
G |----------------|----------------|----------------|----------------|
D |-5------7-------|----------------|----------------|----------------|
A |-5------7-------|----------------|----------------|----------------|
E |-3------5-------|----------------|-5-5-5-5-5-5-5-5|-5-5-5-5-5-5-5-5|

  |                      |3 x|
E |----------------|----------------|----------------|-------|
B |----------------|----------------|----------------|-------|
G |----------------|----------------|----------------|-------|
D |----------------|----------------|----------------|-------|
A |----------------|----------------|----------------|-------|
E |-6p5p3-6p5p3-6p5p3-6p5p3--6-6-3--|-6p5p3-6p5p3-6p5p3-6p5p3|

E |----------------|----------------|
B |----------------|----------------|
G |-5------7-------|----------------|
D |-5------7-------|----------------|
A |-3------5-------|----------------|
E |----------------|-------------x\-|

Zakonczenie Riff F

E |----------------|----------------|----------------|----------------|---||
B |----------------|----------------|----------------|----------------|---||
G |-7--------------|----------------|----------------|----------------|---||
D |-7------r e s t-|----------------|----------------|----------3-----|-5-||
A |-5--------------|----------------|----------------|----------3-----|-5-||
E |----------------|----------------|----------------|----------1-----|-3-||

Dodaj komentarz ...i/lub link do filmiku video

Zaloguj się do serwisu
Ostatnie komentarze
1.
666Metallica666
2009-06-04 22:51
Venom - Black Metal
Wszelkie materiały i wypowiedzi zamieszczone na www.chords.pl są własnością ich autorów.