Zacznij systematycznie uczyć się grać na gitarze razem ze stroną Moja nauka - będziesz miał/miała do niej dostęp po zalogowaniu się w serwisie

Bloodlust - Venom

Opracował -a: Riffx,
Redaktor: Riffx,
Data publikacji: 2007-07-04 00:02
 
Moja nauka


Ups, problem :-/
Zaloguj się Mój śpiewnik
Riff A
|--------------------------------------------------------------|
|--------------------------------------------------------------|
|---------------------------4---------------------------4------|
|--------------2h4h5--------4--------------2h4h5--------4------|
|--------2h4h5-------2h4h5--2--------2h4h5-------2h4h5--2------|
|--2h4h5-----------------------2h4h5---------------------------|


Riff B
|---------------------------------------|
|---------------------------------------|
|---------------------------------------|
|--------------2h4h5-4-----4-----4------|
|--------2h4h5-------2-222-2-222-2------|
|--2h4h5--------------------------------|


Riff C
|-------------------------|
|-------------------------|
|-------------------------|
|--2------5--2------7-----|
|--0-0000-3--0-0000-5-----|
|-------------------------|


Riff D
|---------------------------------------------------|
|---------------------------------------------------|
|---------------------------------------------------|
|--4-----4-----4-----2-4-----4----------------------|
|--2-222-2-222-2-222-0-2-222-2-222-5-----7----------|
|----------------------------------3-333-5-555------|


Riff E
|-----------------------------------------------------------|
|-----------------------------------------------------------|
|-----------------------------------------------------------|
|--1111--------99------77------55---------------4-----------|
|--9-9-xx1111--77xx99--55xx77--33xx55--2-razy---4-----------|
|------xx9-9-----xx77----xx55----xx33-----------2-----------|

Dodaj komentarz ...i/lub link do filmiku video

Zaloguj się do serwisu
Wszelkie materiały i wypowiedzi zamieszczone na www.chords.pl są własnością ich autorów.