Zacznij systematycznie uczyć się grać na gitarze razem ze stroną Moja nauka - będziesz miał/miała do niej dostęp po zalogowaniu się w serwisie

She is a punk rocker (tab) - Armia

Dodał -a: qraczyna,
Redaktor: Tomek Pietrzkowski,
Data publikacji: 2010-03-09 08:56, Poprawiono 2010-03-13 20:01
 
Moja nauka


Ups, problem :-/
Zaloguj się Mój śpiewnik
Wstęp
E------------------------------------------------
H------------------------------------------------
G------------------------------------------------
D--9/1010-10-1010--------------------------------
A--9/1010-10-1010--------------------------------
E--7/8-8--8--8-8---------------------------------

Zwrotka
E------------------------------------------------
H------------------------------------------------
G------------------------------------------------
D--9/1010-10-1010--------------------------------
A--9/1010-10-1010--------------------------------
E--7/8-8--8--8-8---------------------------------
Dziki mówił...

E--------------------------------------------------
H--------------------------------------------------
G--------------------------------------------------
D--5---------------------------9/10----------9/10--
A--5---------------------------9/10----------9/10--
E--3---------------------------7/8-----------7/8---
Chociaż każdy... ...na ten żart

E-----------------------------------------------
H-----------------------------------------------
G-----------------------------------------------
D--7------------------------3-------------------
A--7------------------------3-------------------
E--5------------------------1-------------------
Armia wy- -grała mecz

E-----------------------------------------------
H-----------------------------------------------
G-----------------------------------------------
D--9/10-----9/10---------5----------------------
A--9/10------9/10--------5----------------------
E--7/8------7/8----------3----------------------
Karolina Kazimatczak to...

Refren
E---------------------------------|----------------
H---------------------------------|----------------
G---------------------------------|----------------
D--9/10-----3-----5---------------|--9/10----9/10--
A--9/10-----3-----5---------------|--9/10----9/10--
E--7/8------1-----3---------------|--7/8-----7/8---
Sheena is a punk rocker now, now

Po refrenie jest jeszcze takie przejście (przynajmniej u Ramones - czy jest w wersji Armii, nie pamiętam)
E-------------------------------
H-------------------------------
G-------------------------------
D---9/10------9/10-----3--------
A---9/10------9/10-----3--------
E---7/8-------7/8------1--------

E-------------------------------
H-------------------------------
G-------------------------------
D---9/10------9/10-----5-----8--
A---9/10------9/10-----5-----8--
E---7/8-------7/8------3-----6--

Dodaj komentarz ...i/lub link do filmiku video

Zaloguj się do serwisu
Ostatnie komentarze
1.
Tomek Pietrzkowski
2010-03-13 20:02
Poprawione, dzięki za info. Pozdro!
2.
PixieLady888
2010-03-13 17:21
hehe. ten utwór to "She is a punk rocker" poprawcie to.
3.
bartek2211
2010-03-09 15:51
Witam ten utwór nosi nazwę "sheena is a punk rocker" ;)
Wszelkie materiały i wypowiedzi zamieszczone na www.chords.pl są własnością ich autorów.