Zacznij systematycznie uczyć się grać na gitarze razem ze stroną Moja nauka - będziesz miał/miała do niej dostęp po zalogowaniu się w serwisie

Dom przy moście - Armia

Opracował -a: biskup,
Pochodzi z: http://www.chords.pl
Data publikacji: 2005-02-22 00:02
 
Moja nauka


Ups, problem :-/
Zaloguj się Mój śpiewnik
Tonacja Dropped-D!

 Riff 1                   x3    End 1          trem       End 2
e-----------------------------|-------------------------|---------------------------|-
b-----------------------------|-------------------------|---------------------------|-
g-----------------------------|-------------------------|---------------------------|-
d--8p7-7-7-7--7-8p7-7-7--7-7--|-8p7-7-7-7--7-10/\/\/\/\-|-8p7-7-7-7--7-7---10--8--7-|-
a--8p7-7-7-7--7-8p7-7-7--7-7--|-8p7-7-7-7--7-10/\/\/\/\-|-8p7-7-7-7--7-7---10--8--7-|-
d--8p7-7-7-7--7-8p7-7-7--7-7--|-8p7-7-7-7--7-10/\/\/\/\-|-8p7-7-7-7--7-7---10--8--7-|-

 Solo 1
e-------------------------------------|--------------------------------------|--
b-------------------------------------|--------------------------------------|--
g-------------------------------------|--------------------------------------|--
d--5/8~~~--5/7~~~--7/12~~~--12\11~~~--|--5/8~~~--5/7~~~--7/12~~~--12\14~~~---|--
a-------------------------------------|--------------------------------------|--
d-------------------------------------|--------------------------------------|--

e-------------------------------------|--------------------------------------|--
b-------------------------------------|--------------------------------------|--
g-------------------------------------|--------------------------------------|--
d--5/8~~~--5/7~~~--7/12~~~--12\11~~~--|--5/8~~~--5/7~~~--7/5~~~--5\2~~~------|--
a-------------------------------------|--------------------------------------|--
d-------------------------------------|--------------------------------------|--

 Refren
e---------------------------|---------------
b---------------------------|---------------
g---------------------------|---------------
d--8----7------12----11-----|---8h10----7---
a--8----7------12----11-----|---8h10----7---
d--8----7------12----11-----|---8h10----7---
                               Zło jest złe

Dodaj komentarz ...i/lub link do filmiku video

Zaloguj się do serwisu
Ostatnie komentarze
1.
partyzant
2008-05-04 13:11
A ma ktoś moze rozpisane tą piosenkę w standardowej tonacji E? bo w Dropped D inaczej chwyty się łapie.
2.
Rectifier
2007-10-26 00:36
Psycho melodyjka po połowie; G---------------6- ------------------------------------------------------ D-8-8-8-8-8-6--- -7-7-7-7--8-7-5--8-7----7-7-7-7--8-7-5--8-7-4- A----------------- -------------------------7---------------------------- D----------------- ------------------------------------------------------ x8 x2
3.
Rectifier
2007-10-26 00:09
Solo w połowie kawałka; G-------7-6---------------- --------------------7------- D--7-8------7--7-8---7-7- -7-8---7-7----7-8---7----- A--------------------7------ -----7---------------------- D--------------------------- ----------------------------- x3
4.
Rectifier
2007-10-23 20:04
Podczas zwrotki w "przerywnikach" jest grane C\H\B(prog 10\9\8).Refren to B-A,D-Cis,B-A,D-E(tutaj jest B-A,D-Cis), a przejscie po refrenie do zwrotki to B-D-A (tutaj B-C-A).Bez urazy - to tylko moje zdanie.
Wszelkie materiały i wypowiedzi zamieszczone na www.chords.pl są własnością ich autorów.