Zacznij systematycznie uczyć się grać na gitarze razem ze stroną Moja nauka - będziesz miał/miała do niej dostęp po zalogowaniu się w serwisie

Obok historii - Armia

Opracował -a: matnal,
Redaktor: Miłosz,
Pochodzi z: http://www.chords.pl
Data publikacji: 2006-03-23 00:10
 
Moja nauka


Ups, problem :-/
Zaloguj się Mój śpiewnik
Wstęp:

E|-------------------------------------
H|-------------------------------------
G|------6-666-6-6-8-9------------------
D|------6-666-6-6-8-9--4-444-4-4-6-7--- (x2)
A|------4-444-4-4-6-7--4-444-4-4-6-7---
E|---------------------2-222-2-2-4-5---

Zwrotka:

E|-------------------------------------
H|-------------------------------------
G|------676767-------------------------
D|------676767-7-44-4-77-7-------------
A|------454545-7-44-4-77-7-------------
E|-------------5-22-2-55-5-------------

Refren:

E|-------------------------------------
H|-------------------------------------
G|------7-77777777-9-------------------
D|------7-77777777-9-7-----------------   (x2)
A|------5-55555555-7-7-----------------
E|-------------------5-----------------
              "[...]święto rewolucji[...]"

Dodaj komentarz ...i/lub link do filmiku video

Zaloguj się do serwisu
Wszelkie materiały i wypowiedzi zamieszczone na www.chords.pl są własnością ich autorów.