Zacznij systematycznie uczyć się grać na gitarze razem ze stroną Moja nauka - będziesz miał/miała do niej dostęp po zalogowaniu się w serwisie

Saluto - Armia

Opracował -a: pablo_siersza,
Dodał -a: pablo_siersza,
Redaktor: Seba,
Pochodzi z: http://www.chords.pl
Data publikacji: 2012-04-23 12:37
 
Moja nauka


Ups, problem :-/
Zaloguj się Mój śpiewnik
wstęp i zwrotka:
D |---4-------|
A |---2---6---|
E |-------4----|
"Heja Ho! Heja Ho!"

refren:
D |---6---4-------|
A |---4---2---6---|
E |-----------4---|
"Salut! Salut!"

D |-----------3/4-4-4-----------4---|
A |---2---4---1/2-2-2---2---4---2---|
E |---0---2-------------0---2-------|

Dodaj komentarz ...i/lub link do filmiku video

Zaloguj się do serwisu
Wszelkie materiały i wypowiedzi zamieszczone na www.chords.pl są własnością ich autorów.