Zacznij systematycznie uczyć się grać na gitarze razem ze stroną Moja nauka - będziesz miał/miała do niej dostęp po zalogowaniu się w serwisie

Wojny bez łez - Armia

Opracował -a: pablo_siersza,
Dodał -a: pablo_siersza,
Redaktor: SEBEK1304,
Pochodzi z: http://www.chords.pl
Data publikacji: 2012-04-23 19:41
 
Moja nauka


Ups, problem :-/
Zaloguj się Mój śpiewnik
intro/zwrotka/refren:
     H E B Dis
E|----------------|
H|----------------|
G|----------------|
D|------9-----8---|
A|---9--7--8--6---|
E|---7-----6------|

przejście:
     H E B Dis A D Gis Cis G C
E|----------------------------------|
H|----------------------------------|
G|----------------------------------|
D|------9-----8-----7-----6-----5---|
A|---9--7--8--6--7--5--6--4--5--3---|
E|---7-----6-----5-----4-----3------|

Dodaj komentarz ...i/lub link do filmiku video

Zaloguj się do serwisu
Wszelkie materiały i wypowiedzi zamieszczone na www.chords.pl są własnością ich autorów.