Zacznij systematycznie uczyć się grać na gitarze razem ze stroną Moja nauka - będziesz miał/miała do niej dostęp po zalogowaniu się w serwisie

Parada Słoni i Róża (taby) - Maanam

Opracował -a: rybazmarsa88,
Dodał -a: rybazmarsa88,
Redaktor: Tomek Pietrzkowski,
Data publikacji: 2010-05-06 10:20
 
Moja nauka


Ups, problem :-/
Zaloguj się Mój śpiewnik
Wstęp 4x
-------------
---0---------
----2-0------
-------------
-2-----------
-0-----------

( I riff ) Różo..
-------------------------------10s12-------------------------
-------------------------------------------------------------
-------------------------------------------------------------
-------------5-------5-4----5--------------------------------
-----------7---7-7-7----5-7--7-------------------------------
------------------------------------------------------------

( II riff ) Na horyzoncie…
-----------------5s6-----------------------------------------
-------------------------------------------------------------
--5-----5-4---5----------------------------------------------
-7-7-7-7---5-7-7---------------------------------------------
-------------------------------------------------------------
-------------------------------------------------------------

Solo I :
------------------------------------------------------------
--------7B--------------------------------------------------
--9-9-9---7-7S8---------------------------------------------
---------------7s9------------------------------------------
------------------10-----10---------------------------------
--------------------12s10-----------------------------------

-------9----------------------------------------------------
------------------------------------------------------------
-9-9-9---7s9-7s9-7s8s9--------------------------------------
------------------------------------------------------------
------------------------------------------------------------
------------------------------------------------------------

Solo II
-----------------------------------------------------------
------------8------------------------8---------------------
--9-9-9-9p7--9-7s9--------9-9-9-9p7----9-7s9-7s9-7s9--------
-----------9------7s9---------------9----------------------
---------------------9s10----------------------------------
-----------------------------------------------------------

Refren gramy chwytami barre’a:
a e
-5--7-------
-5—8-------
-5--9-------
-7--9-------
-7--7-------
-5--7-------

Dodaj komentarz ...i/lub link do filmiku video

Zaloguj się do serwisu
Wszelkie materiały i wypowiedzi zamieszczone na www.chords.pl są własnością ich autorów.