Zacznij systematycznie uczyć się grać na gitarze razem ze stroną Moja nauka - będziesz miał/miała do niej dostęp po zalogowaniu się w serwisie

Raz dwa, raz dwa (bass) - Maanam

Opracował -a: schmeichelq,
Dodał -a: schmeichelq,
Redaktor: SEBEK1304,
Pochodzi z: http://www.chords.pl
Data publikacji: 2011-01-25 18:18
 
Moja nauka


Ups, problem :-/
Zaloguj się Mój śpiewnik
Manaam - raz dwa raz dwa

G-------------------------------------
D--------5-------4--------------------
A----7-7---7-5-5---5-3-3-3-5--7-7-----
E-------------------------------------


zwrotka
G-----------------------------------
D------5---5-5---4-----4------------
A--7-7---7-----5---5-5---5-----5----
E--------------------------7-7---7--

refren
G----------------------------------------------5-------------
D------5-------2-------5-------2-------4---5-----------------
A--7-7---7-3-3---3-7-7---7-3-3---3-5-5---5---5----5-5-6-7-7--
E------------------------------------------------------------

G---------------------------------------
D---------------------------------------
A--7---5--5--3--2--0--2-3-5-7-7---------
E---------------------------------------

tak to mniej więcej leciało

Dodaj komentarz ...i/lub link do filmiku video

Zaloguj się do serwisu
Wszelkie materiały i wypowiedzi zamieszczone na www.chords.pl są własnością ich autorów.