Zacznij systematycznie uczyć się grać na gitarze razem ze stroną Moja nauka - będziesz miał/miała do niej dostęp po zalogowaniu się w serwisie

Twist (Intro) - Maanam

Dodał -a: MarcelSobala,
Redaktor: Seba,
Data publikacji: 2011-07-02 12:25
 
Moja nauka


Ups, problem :-/
Zaloguj się Mój śpiewnik
   G                              D
E|-----------15----15--15--15----|-----------10----12--12--10----|
H|-------15--15----15--15--15----|-------10--10----10--10--10----|
G|-15h16-------------------------|-10h11-----------11--11--11----|
D|-------------------------------|-------------------------------|
A|-------------------------------|-------------------------------|
E|-------------------------------|-------------------------------|

   C                              D
E|------------8----10--10---8----|-----------10----12--12--10----|
H|-------8----8-----8---8---8----|-------10--10----10--10--10----|
G|---8h9------------9---9---9----|-10h11-----------11--11--11----|
D|-------------------------------|-------------------------------|
A|-------------------------------|-------------------------------|
E|-------------------------------|-------------------------------|

Dodaj komentarz ...i/lub link do filmiku video

Zaloguj się do serwisu
Wszelkie materiały i wypowiedzi zamieszczone na www.chords.pl są własnością ich autorów.