Zacznij systematycznie uczyć się grać na gitarze razem ze stroną Moja nauka - będziesz miał/miała do niej dostęp po zalogowaniu się w serwisie

Espana forever - Maanam

Opracował -a: rodzina123,
Redaktor: Tomek Pietrzkowski,
Data publikacji: 2007-07-16 00:02
 
Moja nauka


Ups, problem :-/
Zaloguj się Mój śpiewnik
INTRO - AKORDY


E1-------5--8---5------7-------------5--7---5-------6---------|
H2-----6----------6----6-----------6----------6-----6---------|
G3---------------------7----------------------------3---------|
D4--0------------------0--------0-------------------0---------|
A5------------------------------------------------------------|
E6------------------------------------------------------------|


E1---------1-----------3----5----3---------3--------1---------|
H2-------3-----3-------3----3----3---------3--------3---------|
G3-----3---------3-----3----3----2---------2--------2---------|
D4--0------------------0---(0)---0---------0--------0---------|
A5------------------------------------------------------------|
E6------------------------------------------------------------|


MELODY 1


E1--12--10-H12-p10-----12-10------12~~~~(12b-12)-10-----------|
H2-----------------10--------10-------------------------------|
G3------------------------------------------------------------|
D4------------------------------------------------------------|
A5------------------------------------------------------------|
E6------------------------------------------------------------|


E1--12--10-H12-p10-----12-10----------------------------------|
H2-----------------10--------10---11B---(11)------------------|
G3------------------------------------------------------------|
D4----------------------------------------------12~~\---------|
A5------------------------------------------------------------|
E6------------------------------------------------------------|


E1------------------------------------------------------------|
H2---10-H11 p10--------------10-H11-p10-----------------------|
G3----------------12-12~~----------------12-12-12-----10-H12--|
D4-------------------------------------------------12---------|
A5------------------------------------------------------------|
E6------------------------------------------------------------|


E1------------------------------------------------------------|
H2------------------------------------------------------------|
G3--(12B)-----------12B-----10--------------------------------|
D4---------------------------------12--10--12~~~~\------------|
A5------------------------------------------------------------|
E6------------------------------------------------------------|



E1--12--10-H12-p10-----12-10------12~~~~(12b-12)-10-----------|
H2-----------------10--------10-------------------------------|
G3------------------------------------------------------------|
D4------------------------------------------------------------|
A5------------------------------------------------------------|
E6------------------------------------------------------------|


E1--12--10-H12-p10-----12-10----------------------------------|
H2-----------------10--------10---11B---(11)------------------|
G3------------------------------------------------------------|
D4----------------------------------------------12~~\---------|
A5------------------------------------------------------------|
E6------------------------------------------------------------|


E1------------------------------------------------------------|
H2---10-H11 p10--------------10-H11-p10-----------------------|
G3----------------12-12~~----------------12-12-12-----10-H12--|
D4-------------------------------------------------12---------|
A5------------------------------------------------------------|
E6------------------------------------------------------------|


E1------------------------------------------------------------|
H2------------------------------------------------------------|
G3--(12B)-----------12B-----10~~~~~~~~~\----------------------|
D4------------------------------------------------------------|
A5------------------------------------------------------------|
E6------------------------------------------------------------|


MELODY 2


E1------------------------------------------------------------|
H2------------------------------------------------------------|
G3--------------------------------10--9~~~~--\--7~~~~~~-------|
D4------------------------12--11------------------------------|
A5--10~~~~----10--12--13--------------------------------------|
E6------------------------------------------------------------|


E1----------------------------------10-H12--12b--12b-(12)-10~~|
H2----------------------------10-H11--------------------------|
G3----------------------10-H12--------------------------------|
D4------------------------------------------------------------|
A5--10~~~~----10--12------------------------------------------|
E6------------------------------------------------------------|


MELODY 3


E1------------------------------------------------------------|
H2--5-H6-p5-------5-H6-p5-------5-----------------------------|
G3----------7-------------7--------7--5-----5-H7-p5~~~~-------|
D4------------------------------------------------------------|
A5------------------------------------------------------------|
E6------------------------------------------------------------|

E1------------------------------------------------------------|
H2------------------------------------------------------------|
G3----------5--7-----7B-------7--5----------------------------|
D4-----------------------------------8-----8-H10-p8-----------|
A5------------------------------------------------------------|
E6------------------------------------------------------------|


E1----------------------------------------------6~~---5-H6----|
H2------------------------------------------------------------|
G3----------3---5---5B~~~~------------7---H8------------------|
D4-------------------------------8---(8)-(8)------------------|
A5----------------------------6-------------------------------|
E6------------------------------------------------------------|


E1--5---------------------------------------------------------|
H2----------8---6---5-----------------------------------------|
G3------------------------7---6-------------------------------|
D4---------------------------------8---7~~~~------------------|
A5------------------------------------------------------------|
E6------------------------------------------------------------|

POWT.

Dodaj komentarz ...i/lub link do filmiku video

Zaloguj się do serwisu
Wszelkie materiały i wypowiedzi zamieszczone na www.chords.pl są własnością ich autorów.