Zacznij systematycznie uczyć się grać na gitarze razem ze stroną Moja nauka - będziesz miał/miała do niej dostęp po zalogowaniu się w serwisie

Noc - Budka Suflera

Opracował -a: SolarQueen,
Dodał -a: SolarQueen,
Redaktor: Seba,
Pochodzi z: http://www.chords.pl
Data publikacji: 2011-03-12 17:56
 
Moja nauka


Ups, problem :-/
Zaloguj się Mój śpiewnik
Intro: a G a G

Noc...           a G C
Który uczy...    G d a G
Noc...           a G C
Święta wojna...  G d a G

Przejście: a G a G

Noc...           a G C
To wyznanie...   G d a G
Noc...           a G C
Zauważyć...      G d a G

Ref.
Potajemnie...    d a
Krew...          d a
Gdy jednego...   d a G
Wędrowania...    d a
Twoje ciało...   d a
Kiedy wiesz...   d a G

Solo:

-|--------10-----------------------------------------------------------|-
-|-----10----13----10-13-12--10-------10-------10-13----10-12----------|-
-|--12----------12--------------12-10----10-12-------12----------------|-
-|---------------------------------------------------------------------|-
-|---------------------------------------------------------------------|-
-|---------------------------------------------------------------------|-

-|--------10-----------------------------------------------------------|-
-|-----10----13----10-13-12--10-----------10---------------------------|-
-|--12----------12--------------12--10/12------------------------------|-
-|---------------------------------------------------------------------|-
-|---------------------------------------------------------------------|-
-|---------------------------------------------------------------------|-

Noc...           a G C
I bolesnych ...  G d a G
Noc...           a G C
Wędrowania...    G d a G

Ref.
Potajemnie...    d a
Krew...          d a
Gdy jednego...   d a G
Wędrowania...    d a
Twoje ciało...   d a
Kiedy wiesz...   d a G

Solo:

-|---------------------------------------------------------------------|-
-|---------------------------------------------------------------------|-
-|------5-7-9-7----------5---------9-5---7-----------------------------|-
-|----9---------9--5-7-9---9-7-5-7-----7---9-5--------5---7-5-9-5-7----|-
-|--7------------------------------------------8-7--7---8--------------|-
-|---------------------------------------------------------------------|-

-|-----------------------------------------8-12-10---------------------|-
-|------------------------------------8-10---------12-8----------------|-
-|----9-7-9-7-5-7-5-4-5-4-----4-----9-------------------10-9-----------|-
-|--7---------------------7-5---5-7------------------------------------|-
-|---------------------------------------------------------------------|-
-|---------------------------------------------------------------------|-

-|---------------------------------------------------------------------|-
-|----8----10----12----------------------------------------------------|-
-|--9---10----12----12--12/14------------------------------------------|-
-|---------------------------------------------------------------------|-
-|---------------------------------------------------------------------|-
-|---------------------------------------------------------------------|-

Ref.
Potajemnie...    d a
Krew...          d a
Gdy jednego...   d a G
Wędrowania...    d a
Twoje ciało...   d a
Kiedy wiesz...   d a G

Zakończenie: a G a G
Dodał: SolarQueen, 2011-03-12 17:56
Opracowania video z komentarzy

Dodaj komentarz ...i/lub link do filmiku video

Zaloguj się do serwisu
Wszelkie materiały i wypowiedzi zamieszczone na www.chords.pl są własnością ich autorów.