Zacznij systematycznie uczyć się grać na gitarze razem ze stroną Moja nauka - będziesz miał/miała do niej dostęp po zalogowaniu się w serwisie

Takie tango - Budka Suflera

Dodał -a: Struna,
Pochodzi z: http://www.chords.pl
Data publikacji: 2005-02-17 19:30
 
Moja nauka


Ups, problem :-/
Zaloguj się Mój śpiewnik
intro:
E||------------------0--|--1--0----------------|--1--0----------------|
B||---------------3-----|--------3-------------|--------3-------------|
G||------------2--------|-----------2----------|-----------3----------|
D||---------------------|----------------------|----------------------|
A||---------------------|----------------------|----------------------|
E||---------------------|----------------------|----------------------|

-------------0---------|-------------------0--|--1--0-----5------2------|
-------2--3-------2----|--3-------------3-----|--------3-----------4----|
----2------------------|-------------2--------|--------------------6----|
-----------------------|----------------------|--------------------8----|
-----------------------|----------------------|----------------------3--|
-----------------------|----------------------|----------------------0--|

-----0----------------|-------------0---------|--------2-13-20-22--------|
--6-----3-------------|-------2--3-------2----|--3-------13-22-----------|
-----------3----------|----2------------------|--------------------------|
----------------------|-----------------------|--------------------------|
----------------------|-----------------------|--------------------------|
----------------------|-----------------------|--------------------------|

d C d C      Na sali wielkiej.....
B A d        Które nie chce...
d C d C      Orkiestra stroi....
B A d        Nowe tango....

d C d C      Siedzimy obok....
B A d        Wystukujšc......
d B          Nie bedzie......
g A d        Nie pomoże......

g            Chociaż płynš.....
g F C        W żyłach..........
g            Nigdy żadne.......
g F C        Nie poderwie......

d C d C      Bo do tanga.....
d C d C      Zgodnych........
d C d C      Bo do tanga.....
d C d        Tak ten œwiat.....
Dodał: wojtek_n, 2015-10-11 23:47
Opracowania video z komentarzy

Dodaj komentarz ...i/lub link do filmiku video

Zaloguj się do serwisu
Ostatnie komentarze
1.
petro88
2015-08-13 18:58
Wideo nie dziala :/ link do kitu..
2.
ReTaR
2007-11-05 18:48
oo to fajnie:) ja bylbym chetny do zobaczenia tego filmiku:) chetnie zobacze jak ma byc poprawne... PS. mam chyba gdzies troche inna wersje tego^^ utworu... jak bede mial czas to postaram sie ja tutaj wrzucic:D Pozdrawiam!
3.
rodzina123
2006-11-18 18:39
Mam filmik pokazujący w zwolnionym nieco tempie - jak grać intro... Zgram też w ten sposób solóweczkę ... Polecam - pozdrawiam !
4.
abdul7805
2006-11-18 16:09
Czy ktos moze napisac bicie do tego tanga.
5.
arcio
2006-03-11 08:41
ta strona zawiera strasznie dużo błędów nieda z niej się wcale uczyć
6.
rodzina123
2006-02-01 18:14
OK - nie ma sprawy ! solo to składa się z 8 taktów na 4/4 akordy : | g | g | F | C | | g | g | F | C A7 | melodia ( P. Marek Raduli ) e----------------------------- --------10-------------------- h-------------------------10- --11-------------------------- g----------------------12---- -------------12B-12--10-12- d-------------------12------- ------------------------------- a--------10-12-13----------- ------------------------------ e-x------x------x------x----- --x------x------x------x---- e----------------------------- ----------------------------- h--10-----13---------------- ------------------------------ g---------------------12B--- -12------------------------- d----------------------------- ----10---------------------- a----------------------------- ----------------------------- e--x-----x-----x-----x------ --x-----x-----x------x------ 3 fraza dokładnie tak jak fraza 1 e----------------------------- ------------------------------- h-10---13-13B-13--11-10-- --13-----------13b----------- g----------------------------- ------------------------------- d----------------------------- ------------------------------- a----------------------------- ------------------------------- e--x-----x-----x------x------ --x------x------x------x----- tym ostatnim dxwiękiem 13b ( podciagnać o 1 próg ) trzeba pobujać ( bending z wibratem )
7.
guciol_
2006-02-01 13:36
witam te solo jest genialne wręcz tak to ujme ale przydała by sie jeszcze a skroman solóweczka która jest prawie orzy samym końcu pozdrawiam
8.
rodzina123
2005-12-28 15:53
po mojemu intro leci tak : e---------- ------------ -------------- ------------------------- h---------- ------------ -------------- ------------------------- g-----7--9 -9b--9--7-- -9b--9--7--- ----6--7--7gliss9--6--7 d--7------ ------------7 ------------8 -7---------------------- e---------- ---------------- -------------- ----------------------- h---------- ------------8bb -------------- ----------------------- g-----7--9 -9b--9--7------ -9b--9--7--- -ten takt j. w.------- d--7------ ----------------- ------------8 ----------------------- c.d. taktu 8bb - podciągnąć strunę o 2 progi ( z 8 do 10 )
Wszelkie materiały i wypowiedzi zamieszczone na www.chords.pl są własnością ich autorów.