Zacznij systematycznie uczyć się grać na gitarze razem ze stroną Moja nauka - będziesz miał/miała do niej dostęp po zalogowaniu się w serwisie

Z dalekich wypraw (wersja z Szalonego konia) - Budka Suflera

Opracował -a: SolarQueen,
Dodał -a: SolarQueen,
Redaktor: Seba,
Pochodzi z: http://www.chords.pl
Data publikacji: 2011-05-28 12:24
 
Moja nauka


Ups, problem :-/
Zaloguj się Mój śpiewnik
Myśli...          G
Coś w...          h
I powracam...     e a h
Oto znowu...      G
Serce...          h a
I nie rzucam...   C D
Biec...           G
Zwykłym...        h a
Bo widziałem...   C D

Solo:

-|---------------------------------------------------------------------|-
-|--------10---11-10----10---11-10-------------------------------------|-
-|--10-12------------12------------12-10~-----10-12~-12b13-12b13-------|-
-|-----------------------------------------12--------------------------|-
-|---------------------------------------------------------------------|-
-|---------------------------------------------------------------------|-

-|----------------11/12------------------------------------------------|-
-|--12-12--15--12------------------------------------12-------15b16----|-
-|----------------------14--14p12----12----12-14--14----14p12----------|-
-|--------------------------------14----14-----------------------------|-
-|---------------------------------------------------------------------|-
-|---------------------------------------------------------------------|-

-|---------------------------------------------------------------------|-
-|--15b16-15~-15b16----------------------------------------------------|-
-|---------------------------------------------------------------------|-
-|---------------------------------------------------------------------|-
-|---------------------------------------------------------------------|-
-|---------------------------------------------------------------------|-

Tylko...          G
Bluesa...         h
Na wyprawy...     e
Gdzie...          a h

Outro:      G h e a h

Dodaj komentarz ...i/lub link do filmiku video

Zaloguj się do serwisu
Ostatnie komentarze
1.
ror15
2011-05-28 19:59
wg.mnie : Myśli... G Coś w... h I powracam... e Na.... a Hsus4 Oto znowu... G h Serce... e a I nie rzucam... C D Biec... G h Zwykłym... e a Bo widziałem... C D Tylko... G Bluesa... h Na wyprawy... e Gdzie... a Hsus4
Wszelkie materiały i wypowiedzi zamieszczone na www.chords.pl są własnością ich autorów.