Zacznij systematycznie uczyć się grać na gitarze razem ze stroną Moja nauka - będziesz miał/miała do niej dostęp po zalogowaniu się w serwisie

To jest mgnienie - Budka Suflera

Opracował -a: SolarQueen,
Dodał -a: SolarQueen,
Redaktor: Seba,
Pochodzi z: http://www.chords.pl
Data publikacji: 2011-07-09 10:26
 
Moja nauka


Ups, problem :-/
Zaloguj się Mój śpiewnik
Intro:   x2 (później w kółko podczas zwrotki)

-|------------------------------------|-
-|--------4----5p4--------------------|-
-|--5p3-5---5~-----5p3-------3----3~--|-
-|---------------------5p3-5---5~-----|-
-|------------------------------------|-
-|------------------------------------|-

Jeśli świt...       c g
Jeśli człowiek...   c g

Bo ani...           F G
Nie da...           F G

Twoje życie...      c g
Co za...            c g

Powiał...           F G
Byle ktoś...        F G

To jest...          Gis Dis B
Cud...              Gis Dis G

Ref.
I kochajmy...       c Gis B   x4
Za najgorszą...
Za to...
Za odwagę...

Przejście: (w kółko podczas zwrotki)

-|------------------------------------|-
-|--------4----5p4--------------------|-
-|--5p3-5---5~-----5p3-------3----3~--|-
-|---------------------5p3-5---5~-----|-
-|------------------------------------|-
-|------------------------------------|-

Kiedy...            c g
Gdy zostanie...     c g

Tu gdzie...         F G
Tu gdzie...         F G

To jest...          Gis Dis B
Wielkie...          Gis Dis G

Ref.
I kochajmy...       c Gis B   x4
Za najgorszą...
Za szaleństwo...
Za odwagę...

Przejście:

-|-----------------------------15b16-15-13\11-13-----|-
-|-----------------13----------------------------16--|-
-|--11----11-13-15----15-13-15-----------------------|-
-|-----14--------------------------------------------|-
-|---------------------------------------------------|-
-|---------------------------------------------------|-

Ref.
I kochajmy...       d B C   x4
Za najlepszą...
Za pokorę...
Za odwagę...

Outro: (do wyciszenia)

-|------------------------------------|-
-|--------6----6p5--------------------|-
-|--7p5-7---7~-----7p5-------5----5~--|-
-|---------------------7p5-7---7~-----|-
-|------------------------------------|-
-|------------------------------------|-

Dodaj komentarz ...i/lub link do filmiku video

Zaloguj się do serwisu
Wszelkie materiały i wypowiedzi zamieszczone na www.chords.pl są własnością ich autorów.