Zacznij systematycznie uczyć się grać na gitarze razem ze stroną Moja nauka - będziesz miał/miała do niej dostęp po zalogowaniu się w serwisie

Do Kołyski (solo) !! - Dżem

Opracował -a: m.ss,
Redaktor: Miłosz,
Pochodzi z: http://www.chords.pl
Data publikacji: 2009-05-23 14:58, Poprawiono 2009-05-23 14:59
 
Moja nauka


Ups, problem :-/
Zaloguj się Mój śpiewnik





-mss


e|---------------------------------------------------------------------------|
B|--8v---10-10^12--10v--10--8--7--8s10v--------------------------------------|
G|---------------------------------------7-9--9b11-9b11-9b11-9b11b9^7--9-----|
D|-----------------------------------------------------------------------9---|
A|---------------------------------------------------------------------------|
E|---------------------------------------------------------------------------|

e|----------7-10-10b12v--10-9-10-9^10^9------------12------------------------|
B|-----7-10-----------------------------12-10-12b14--14b12-10v---------------|
G|-7-9-----------------------------------------------------------------------|
D|---------------------------------------------------------------------------|
A|---------------------------------------------------------------------------|
E|---------------------------------------------------------------------------|

e|-9--10--10s12------10^12-10v---12b14b12^10--12--10--9----------------------|
B|---------------12--------------------------------------12-10---------------|
G|--------------------------------------------------------------12-11-12-----|
D|---------------------------------------------------------------------------|
A|---------------------------------------------------------------------------|
E|---------------------------------------------------------------------------|

e|-------------------12--14--14b15b114^12--14v---14--15--17--17-15-14-15-----|
B|-10-10s12--14--15----------------------------------------------------------|
G|---------------------------------------------------------------------------|
D|---------------------------------------------------------------------------|
A|---------------------------------------------------------------------------|
E|---------------------------------------------------------------------------|

e|-15--17-17b19--17b19--17--15--14-------------------------------------------|
B|---------------------------------------------------------------------------|
G|---------------------------------------------------------------------------|
D|---------------------------------------------------------------------------|
A|---------------------------------------------------------------------------|
E|---------------------------------------------------------------------------|

e|--12-----------------------------------------------------------------------|
B|----15-14-12-15-14-12----14-12-------12------------------------------------|
G|----------------------14-------14-12----14-12-11----------------11-12-14---|
D|-------------------------------------------------------11-12-14------------|
A|-------------------------------------------------12-14---------------------|
E|---------------------------------------------------------------------------|

e|--------------14-15-14^15-17--17b19-17b19b17-15--19b21-19b21b19-17--21b22--|
B|--15-14-15-17--------------------------------------------------------------|
G|---------------------------------------------------------------------------|
D|---------------------------------------------------------------------------|
A|---------------------------------------------------------------------------|
E|---------------------------------------------------------------------------|

e|--19--17---------17--17----------------------------------------------------|
B|----------20--19-----20b22--20--19--17s15-15^17v--17-19b20b19--17--12------|
G|---------------------------------------------------------------------------|
D|---------------------------------------------------------------------------|
A|---------------------------------------------------------------------------|
E|---------------------------------------------------------------------------|


e|-----12--------------------------------------------------------------------|
B|-15---------------------12--14-15b14^12--12^14-12--10--8--7----------------|
G|--------14b16b14-12-14v-------------------------------------9--9s11v-------|
D|---------------------------------------------------------------------------|
A|---------------------------------------------------------------------------|
E|---------------------------------------------------------------------------|

e|---7-9b10--7----------------------------------7--10^7--7v--12v---10^9------|
B|-7-----------10------------------------7--10-------------------------------|
G|-----------------9b11vvvv---7^9--7v----------------------------------------|
D|---------------------------------------------------------------------------|
A|---------------------------------------------------------------------------|
E|---------------------------------------------------------------------------|

e|---------------------------------------------------------------------------|
B|--10s12vvvvv---------------------------------------------------------------|
G|---------------------------------------------------------------------------|
D|---------------------------------------------------------------------------|
A|---------------------------------------------------------------------------|
E|---------------------------------------------------------------------------|

Dodaj komentarz ...i/lub link do filmiku video

Zaloguj się do serwisu
Ostatnie komentarze
1.
zenek113@wp.pl
2012-02-14 15:57
bardzo dobre opracowanie
2.
sorrow1985
2009-06-07 22:28
Radzę nastroić gitarę bo tonacja jest dobra a i opracowanie nie tragiczne.
3.
dzielny_woj
2009-06-06 17:07
To jest w złej tonacji i ma dużo błędó
Wszelkie materiały i wypowiedzi zamieszczone na www.chords.pl są własnością ich autorów.