Zacznij systematycznie uczyć się grać na gitarze razem ze stroną Moja nauka - będziesz miał/miała do niej dostęp po zalogowaniu się w serwisie

Wehikuł Czasu (intro tab) - Dżem

Dodał -a: Chelle,
Redaktor: Seba,
Pochodzi z: http://gokwalce.pl/wehikul.txt
Data publikacji: 2010-08-13 00:01
 
Moja nauka


Ups, problem :-/
Zaloguj się Mój śpiewnik
     Q    E  E  E  E  E  E     Q    Q    E  E  E  E     Q    Q    Q    Q
E||-------------------------|------------------------|----------------------|
B||-------------------------|------------------------|----------------------|
G||-------------------------|------------------------|-----------------2----|
D||--2----------------2-----|------------------------|-------2----4----0----|
A||--0-------0--3--4-----0--|--2----2----------2--0--|--4-------------------|
E||-------------------------|--0----0----3--4--------|--2-------------------|


  Q    E  E  E  E  E  E     Q    E  E  E  E  E  E     Q    Q    E  E  Q
-------------------------|-------------------------|-----------------------|
-------------------------|-------------------------|-----------------------|
--L----4--2--------------|-------------------------|-----------------------|
--L----------4--2--------|--2----------------2-----|-----------------------|
-------------------3--4--|--0-------0--3--4-----0--|--2----2----------2----|
-------------------------|-------------------------|--0----0----3--4-------|


  Q    Q    Q    Q       E  E  E  E  E  E  E  E     H
----------------------|--------------------------|-----------||
--3----3--------------|--------------------------|-----------||
--4----2----2---------|--------------------------|-----------||
--0----0----4----2----|--L-----------2--4--------|--2--------||
------------0----0----|--L--0--3--4--------3--4--|--0--------||
----------------------|--------------------------|-----------||
Dodał: kamil1999, 2015-07-06 18:32
Opracowania video z komentarzy

Dodaj komentarz ...i/lub link do filmiku video

Zaloguj się do serwisu
Ostatnie komentarze
1.
kacper8888
2011-10-28 15:57
No wreszcie jakieś ludzkie opracowanie, wielkie dzięki
2.
Hydraulik
2011-08-01 22:57
L oznacza legato, czyli grasz tylko lewą ręką, palcami/piórkiem uderzasz tylko by wydobyć pierwszy dźwięk, doczytaj ;)
3.
Obrebos
2011-05-27 17:30
a L co oznacza?
4.
rodzina123
2010-12-22 22:52
To są wartości rytmiczne kolejnych dxwięków. Q - ćwierćnuta , E - ósemka. Pozdrawiam
5.
silverbart
2010-12-22 22:30
o co chodzi z tymi oznaczeniami nad tabulatura ?
Wszelkie materiały i wypowiedzi zamieszczone na www.chords.pl są własnością ich autorów.