Zacznij systematycznie uczyć się grać na gitarze razem ze stroną Moja nauka - będziesz miał/miała do niej dostęp po zalogowaniu się w serwisie

Wehikuł czasu - Dżem

Dodał -a: borq,
Pochodzi z: http://www.chords.pl
Data publikacji: 2004-09-03 17:09
 
Moja nauka


Ups, problem :-/
Zaloguj się Mój śpiewnik


E||--0---------0-----------------|-----0--2--5----5-7-5---------|
B||--------1-2--------0------0---|--2--------3----------7-5-----|
G||--2---2-------2-------0-1---2-|--------------------------5-6-|
D||----------------2--2----------|--4---------------------------|
A||------------------------------|------------------------------|
E||------------------------------|------------------------------|



--0--------------------------|--10--10------0-----------0-----------|
------------5------0------0--|--12--10--10----------------------0---|
--------5-6-----------0-1----|----------11----------------11--------|
--7---7-------7--------------|--------------------10-11------10---7-|
----------------7--7---------|--------------12----------------------|
-----------------------------|--------------------------------------|

Zwrotka:
  A E fis D
  A E D   A

Refren:
  E fis D A
Dodał: artix2001, 2013-07-16 13:09
Opracowania video z komentarzy

Dodaj komentarz ...i/lub link do filmiku video

Zaloguj się do serwisu
Ostatnie komentarze
1.
artix2001
2013-07-16 13:09
http://www.youtube.com/watch?feature=player_embedded&v=l-bi2aAqDLc Bardzo łatwa piosenka ale za to bardzo fajna
2.
gistrun
2013-06-02 21:36
Ja ti gram w zupełnie innej tonacji
3.
grubcio009
2013-04-04 13:01
Seboo ta inna tonacja jest ok ale te akordy właśnie w tej kolejności tworzą piosenkę Elektryczne gitary- Koniec
4.
kikan
2012-10-19 15:34
Witam, zapraszam na nasz profil na Facebooku i kanał na YouTube. Prezentujemy tam tylko polskie solówki. Może komuś pomoże to w nauce :) http://www.facebook.com/polskiesolowki
5.
orzechowka22
2012-05-05 12:49
fajnie rospisane imtro olecam opracowanie
6.
tygrysek1985
2009-04-18 14:01
2007-12-31, 13:24; autor: szescian28: --- bardzo dobry tab, gdzieś na zagranicznym serwerze na niego trafiłem i nadal uważam za najlepszy.
7.
kaczka6661
2009-02-22 14:37
jejku ludzie zrozumcie ze nei da sie opisac BICIA!!!!! graj ze sluchu jak tego nie potrafisz to odloz gitare bo to powinno samo przyjsc :(
8.
Creenther
2009-02-21 18:17
Może mi ktoś podać pełną wersje tego utworu z biciami i tabulaturą?
9.
rodzina123
2008-11-12 17:17
No i OK - masz do tego pełne prawo. Pozdrawiam.
10.
Seeboo
2008-11-12 16:55
No ja taki ogniskowy grajek tylko jestem :-)
Wszelkie materiały i wypowiedzi zamieszczone na www.chords.pl są własnością ich autorów.