Zacznij systematycznie uczyć się grać na gitarze razem ze stroną Moja nauka - będziesz miał/miała do niej dostęp po zalogowaniu się w serwisie

List do M. - Dżem

Opracował -a: Ponury,
Dodał -a: wiarus45,
Pochodzi z: http://www.chords.pl
Data publikacji: 2005-02-20 15:36
 
Moja nauka


Ups, problem :-/
Zaloguj się Mój śpiewnik


   a G F Dsus2
   a G F Dsus2
   a G F Dsus2
   a G F Dsus2
   a

   Ref:  
       F E d 
       F E a 
       F E G 
       F E d G



Gitara I (Grane praktycznie przez cały utwór)

----------5-7-5--------------3-3-5-3-----1--0----0-----------|
--------5--------5-------------3---------1--3------3---------|
------5--------------------4-------------2--2--------2-------|  2x
-5-7------------------3-5----------------3--0----------0-----|
-------------------------------------------------------------|
-------------------------------------------------------------|


Gitara II

---------------------------|
---------------------------|
---------------------------|    2x
---------------------------|
-7---5---3-2---3---0-------|
---------------------------|


-------------------------------------------------------------------|
-------------------------------------------------------------------|
-----------------------4---5---4--2---4--5--4----------------------|
--------------------7--------------------------5----5--7-----------|
-7---5---3-----5-7-------------------------------------------------|
-------------------------------------------------------------------|


-------------------------------------------------------------------|
---------------------------------------------------8---------------|
-------4---5--5----4--5----7-5-4-5-4---2--2-----7-----7---7--5-----|
----7--------------------------------------------------------------|
-7-----------------------------------------------------------------|


-------------------------------------------------------------------|
----------------------------------------------------------------8--|
-7--7------5-4----5-7-5--4-2------------5------7----7---5-4--------|
-------------------------------------------7-----------------5-----|
----------------------------------5--7-----------------------------|
-------------------------------------------------------------------|


Solo

-12-12--10---10--7-8-7--7-5----------------------------------------|
-10-10---8----8--8-8-8--------5------------------5-----------------|
---------------------------------7--5---4-5-7------------4---5-7---|
----------------------------------------------------7-7------------|
-------------------------------------------------------------------|
-------------------------------------------------------------------|


-------------------------------------------------------------------|
----------------------------------------------10-13-10----10-------|
-7----5--7-----7----7-5-7---7-5------5-----------------12----12--14|
-----------------------------------7---7---------------------------|
-------------------------------------------------------------------|
-------------------------------------------------------------------|


-------------------------------------------------------------------|
-10-13-10----10-----------10-13-10----10-------13--12----13--------|
----------12----12--14-------------12----12-14--------14----14-14--|
-------------------------------------------------------------------|
-------------------------------------------------------------------|
-------------------------------------------------------------------|


------------15--------------------15-----------------15-17---------|
-----15--------15-17------15---------15-17----15-------------------|
-17-----17--------------------17-----------------17----------------|
-------------------------------------------------------------------|
-------------------------------------------------------------------|
-------------------------------------------------------------------|
Dodał: marcel1977, 2013-03-21 15:50
Opracowania video z komentarzy

Dodaj komentarz ...i/lub link do filmiku video

Zaloguj się do serwisu
Ostatnie komentarze
1.
kaczka6661
2009-05-04 11:28
no to zaimprowizuj bo raczej nigdzie sie z tym nie spotkalem...
2.
asaf2007
2009-05-04 10:07
Niech ktos mi znajdzie stronę na której mogę znaleść tabulaturę do ostatniej solówki .Proszę was bardzo jest mi potrzebna na konkurs
3.
kaczka6661
2009-01-31 17:26
ale po co psuc efekt jakims latwiej jak o wiele piekniej brzmi bending na 8 progu na strunie b?
4.
dannovice
2009-01-31 16:17
brzmienie jest podobne i przedewszystkim łatwiej zagrac normalnie
5.
rodzina123
2009-01-27 15:59
Dźwięk zagrany techniką bending ( podciągnięcie struny ) brzmi mało podobnie do dxwieku zagranego " normalnie " Wysokość dxwieku ta sama - ale jednak brzmi to inaczej... Pozdrawiam
6.
dannovice
2009-01-27 14:51
Tak z tym że dźwięk B|-8^ to ten sam dźwięk co e|-3^ a 3^ do konca daje dzwiek w granicach e|-5- więc wychodzi bardzo podobnie
7.
kaczka6661
2009-01-26 22:03
tam na najchudszej e nie ma 5 tylko na strunie jezeli dobrze pamietam h jest podciagniecei na progu 8 czyli ponizsze jest poprawniejsze
8.
dannovice
2009-01-26 21:24
ja koncowke gram tak: e|--------------------------------------5--5-- B|--------------------------------------------- G|-----------5-------7^7v--5--4------------- D|--------------7------------------5---------- A|---5/7-7------------------------------------ E|---------------------------------------------- gdzie 7^7v znaczy ze uderzam z podciagnieciem i uderzam z opuszczeniem (niewiedzialem jak to zapisac
9.
Luke669
2008-12-08 08:44
łee pomyłka pograłem chwile i szczaiłęm sie ze jest w miare ok xd
10.
Luke669
2008-12-08 08:18
refren źle podany
Wszelkie materiały i wypowiedzi zamieszczone na www.chords.pl są własnością ich autorów.