Zacznij systematycznie uczyć się grać na gitarze razem ze stroną Moja nauka - będziesz miał/miała do niej dostęp po zalogowaniu się w serwisie

Kiepska Gra ( całość tab ) - Dżem

Opracował -a: rybazmarsa88,
Dodał -a: rybazmarsa88,
Redaktor: SEBEK1304,
Data publikacji: 2011-01-20 12:58
 
Moja nauka


Ups, problem :-/
Zaloguj się Mój śpiewnik


Dsus2 | G6 ||4x

Dsus2 | G6 ||4x

A | G | D ||2x

G | A | D | h
G | A | D | D7

G | A | D | h

G | G/Fis | e | D | A

intro 4x
(0)--0------(0)--0------------------------------------------------------------
-3--3---3----3--3---3-------------------------------------------------------------
-2-----------0------------------------------------------------------------
-0-------0---2--------2------------------------------------------------------
-------------------------------------------------------------------------------
--------------------------------------------------------------------------

18s
I gitara 4x
-0---0-----0---0------|----------------------------------------------------
-3--3-3----3--3-3-----|------------------------------------------------------------
-2-2---2---0-0---0----|--------------------------------------------------------
-0------0--2------2---|-------------------------------------------------------
----------------------|---------------------------------------------------------
----------------------|----------------------------------------------------

35s
I gitara
-----0------3---3-----0----0--------0-----0---0----3---3----0---0----2--2p0-----------
-2--2-2-----3----3----3-----3-----3--3----2--2-2---3--3-3---3----3---3-3---3--------------------
-2-2---2----0--0--0---0---0--0---0-0--0---2-2---2--0-0---0--2-----2--2------2-----------------
-2------2---0------0--2--2----2-2------2--2--------0------0-0-0----0---------0-----------
-0----------2-----------------------------0--------2-------------------------------
------------3--------------------------------------3------------------------
II gitara
----------------------------------------------------------------------
----2-2s3-2----------------------------------------------------------------------
----------------------------------7nh-----------2---------------------------
-2----------------0-2--2s4----0------7nh--(0)-----4------------------------------------
-0-------------0-2----------------------------------------------------------------
--------------------------------------------------------------------------


----------------------------------------------------------------------
----2-2s3-2----------------------------------------------------------------------
------------------------------------------2-------2~~-----------------------
-2-------------------0h2--2s4~~----4s2----0---0----------------------------------------
-0----------2-----0h2---------------------------------------------------------------
------------3---3-----------------------------------------------------------

52s
I gitara
-3---3-----0---0-----2---2h3p2-----2---2-----3--3----------0----2---2--2-2---2------------
-3----3----2----2----3--3-----3----3----3----3---3----2---2-2---3----3---1----1---------------
-0--0--0---2--2--2---2-2-------2---4-----4---0----0---2--2---2--2-----2--2-----2------------
-0-0----0--2-2----2--0----------0--4--4---4--0-0---0--2-2-----2-0--0-----0--0---0--------------
-2---------0-----------------------2---------2--------0----------------------------
-3-------------------------------------------3------------------------------
Dalej ten sam motyw na akordach G A D h, lecz zamiast G A D D7, gramy:
-3-3-3---3-3---0-0---0-0--2-2-2---2--2h3p2----0----0--------------------------------------
-3-3-3---3-3---0-0---2-2--3-3-3--3-3-------3--3---3------------------------------------------
-0-0-----0-----0-0-2-2-2--2-2-2-2-----------2-2--2-------------------------------------
-0-----0-----2-----2-2----0-0-----------------0-0---------------------------------
-2-----0-----2-----0----------------------------------------------------------
-3-----2-----0------------------------------------------------------------------

Dalej cały motyw I gitary sie powtarza ( w 2:40s motyw z intro ), wchodzi II gitara solowa:
1:27s
----------------------------------------------------------------------
-10s12---10~~-----7-7-8-8--7h8p7----------------8p7----------------------------------
---------------------------------9-7----------------7----------------------
--------------------------------------9s7~~-----------------------------------
-------------------------------------------------------------------------------
--------------------------------------------------------------------------
1:36s
----------------------------------------------------------------------
-----12-x-10~~---8h10--7s10--8-7-5-(5)~--------(7)h8--7----(7)--------------------
-(9)---------------------------------------7-9----------9p7---9-7----7-------------
------------------------------------------------------------------9-------
-------------------------------------------------------------------------------
--------------------------------------------------------------------------
1:45s
----------------------------------------------------------------------
-------------(5)---(5)-------6-7-------7-(8p7)------------------------
-----7-9s0----6-6-7-6--5--7-9-------7-9--------7---------------------
--------------7-7-7-7--7------------------------------------------------
-------------------------------------------------------------------------------
--------------------------------------------------------------------------
1:53s
------9-12-10-9-------------------------------------------------------------
-10-12----------12-10--10-10s0-12-12-12-12-12-12s10-7-10----------------------------
-------------------------------12-12-12-12-12-12s------------------------------------
-------------------------------------------------------------------------
-------------------------------------------------------------------------------
--------------------------------------------------------------------------
2:03
----------------------------------------------------------------------
--------------------------12s14---12-----------------------------------------------
-11-12-11-9-7--------12-14----------14s12--12s11---7----------12-14-12s11-------------
----------------------------------------------------9--7s9-------------------
-------------------------------------------------------------------------------
--------------------------------------------------------------------------

----10-9-7h9p7--7--------------------------------------------------------------
-12-----------10-----------------10-12--12s11-----13-12--------------------------
--------------------12s11---11-12------------11--------14-12-12--------------------------
-------------------------------------------------------------------------
-------------------------------------------------------------------------------
--------------------------------------------------------------------------
2:22s
----------------------------------------------------------------------
-10s12-12s15-14--14h15p14-12-10---------------------------------------------------------
---------------------------------12-12s11-9-7-9-11--9p7----7-9-7-------7-9s11--------
-------------------------------------------------------9--------9--7--9------
-------------------------------------------------------------------------------
--------------------------------------------------------------------------

----------------------------------------------------------------------
------------------10s12--10----8s7----------------------------------------------------
-12-11h12p11-9-7--------------------9------------------------------------------------
-------------------------------------------------------------------------
-------------------------------------------------------------------------------
--------------------------------------------------------------------------
2:40s
----------------------------------------------------------------------
-7-10-8-7--5~~----------------------------------------------------------------------
-7-------------7-4--4-------12-11-9--9----7-9-11~~-12s(14)~~----7s9--9s7-------------------
----------------------5s7----------------7-----------------------------------
-------------------------------------------------------------------------------
--------------------------------------------------------------------------

-------------------------------------------------------0---------------
--8-7---------------------------------------------------------12nh-----7nh---------
-----9-7--------12---11-----------7-9-7----11s12---11-----12nh-------------------------
---------7s9---------------------7---------------------------------7nh----------
-------------------------5-7-----------------------------------------------------
--------------------------------------------------------------------------

Dodaj komentarz ...i/lub link do filmiku video

Zaloguj się do serwisu
Ostatnie komentarze
1.
fomek
2011-07-27 21:12
Jeśli chodzi o solo to nie pasują z solówka z kawałku, w kilku miejscach jest zup lenie inaczej. Mowie tu o akustycznej wersji ofc
2.
epiphone79
2011-01-22 17:13
jak wygląda G6 bo w necie pełno a nie wiem które dobre. dzięki z góry za odp
3.
Grudzik
2011-01-21 11:43
Jeżeli jest to wersja akustyczna, bez wokalu, to gram to trochę inaczej (m.in. robię na początku akord D-dur z tercją). Zresztą rozpiszę to i wrzucę;)
Wszelkie materiały i wypowiedzi zamieszczone na www.chords.pl są własnością ich autorów.