Zacznij systematycznie uczyć się grać na gitarze razem ze stroną Moja nauka - będziesz miał/miała do niej dostęp po zalogowaniu się w serwisie

Naiwne Pytania - akustycznie - Dżem

Opracował -a: wilcze,
Pochodzi z: http://www.chords.pl
Data publikacji: 2005-07-23 10:36
 
Moja nauka


Ups, problem :-/
Zaloguj się Mój śpiewnik


wersja grana na "Akustycznie" i "W Operze" i czasami na koncertach ;-)

intro i refren:

bicie lepiej zlapać z płyty albo dostosować do siebie...

     G                e               D
e----3--3-3-3-3-------0--0-0-0-0------2--2-2-0-2-3-2-0-2--------|
H----3--3-3-3-3-------0--0-0-0-0------3--3-3-3-3-3-3-3-3--------|
G----0--0-0-0-0-------0--0-0-0-0------2--2-2-2-2-2-2-2-2--------|
D----0--0-0-0-0-------2--2-2-2-2------0-------------------------|
A----2--2-2-2-2-------2--2-2-2-2------0-------------------------|
E----3--3-3-3-3-------0--0-0-0-0------0-------------------------|


zwrotki:

      e           2x                a          2x
e-----0---0-0-0-0-------------------0---0-0-0-0----------------------|
H-----0---0-0-0-0-------------------1---1-1-1-1----------------------|
G-----0---0-0-0-0-------------------2---2-2-0-2----------------------|
D-----2---2-2-0-2-------------------2---2-2-2-2----------------------|
A-----2---2-2-2-2-------------------0---0-0-0-0----------------------|
E-----0---0-0-0-0-------------------0---0-0-0-0----------------------|

pod koniec zwrotki gramy:

      e           2x                a             D              i refren...
e-----0---0-0-0-0-------------------0---0-0-0-0---2-2-2-2----------------|
H-----0---0-0-0-0-------------------1---1-1-1-1---3-3-3-3----------------|
G-----0---0-0-0-0-------------------2---2-2-0-2---2-2-2-2----------------|
D-----2---2-2-0-2-------------------2---2-2-2-2---0-0-0-0----------------|
A-----2---2-2-2-2-------------------0---0-0-0-0---0-0-0-0----------------|
E-----0---0-0-0-0-------------------0---0-0-0-0---0-0-0-0----------------|


zakonczyć można na:

      e
e-----0---0-0-0-0----|
H-----0---0-0-0-0----|
G-----0---0-0-0-0----|
D-----2---2-2-0-2----|
A-----2---2-2-2-2----|
E-----0---0-0-0-0----|
Dodał: sarnaviolin, 2014-10-15 22:25
Opracowania video z komentarzy

Dodaj komentarz ...i/lub link do filmiku video

Zaloguj się do serwisu
Ostatnie komentarze
1.
grajek12
2008-03-17 10:13
wrzuć tabulaturę z wersji koncertowej
2.
Mateusz Dyląg
2007-12-24 22:45
Ludzie, litości! Taką piosenkę, każdy może rozgryźć sam! Skoro ja to rozgryzłem ze 2 lata temu, jak grać zaczynałem...
3.
michal505
2006-10-11 18:19
Sorry zapomniałem dopisac zwr e a a koniec jej: e a D Desus4 i refren od G* WARTO SPRUBOWAC
4.
michal505
2006-10-11 17:08
Fajnie tylko mozna tez zagrajcie tak zwr e a ref G* e D Dsus4 D Dsus4 fajnie brzmi.Pozdrawiam.
5.
krajan
2005-11-12 11:53
przedmowca ma racje, ale i tak super:)
6.
witek_oles
2005-10-19 21:04
We wstepie jak jest grany e-moll przy trzecim uderzeniu powinien byc puszczony palec na strunie D. I jeszcze cos z tym D-durem na koncu nie tak. Pozatym bardzo fajnie :)
Wszelkie materiały i wypowiedzi zamieszczone na www.chords.pl są własnością ich autorów.