Zacznij systematycznie uczyć się grać na gitarze razem ze stroną Moja nauka - będziesz miał/miała do niej dostęp po zalogowaniu się w serwisie

Mandatory Suicide - Slayer

Opracował -a: Riffx,
Redaktor: Tomek Pietrzkowski,
Data publikacji: 2006-08-20 23:49
 
Moja nauka


Ups, problem :-/
Zaloguj się Mój śpiewnik
Riff.1 INTRO x8

 Kerry King:
|------------------------|
|------------------------|
|------------/9-8--------|
|-----------------7------|
|-5-4-3-2-----------8-7^-|
|-3-2-1-0----------------|
|p.m ....
|
|Jeff Hanneman:
|------------------------|
|------------------------|
|------------------10-9^-|
|------------/9-8--------|
|-5-4-3-2---------7------|
|-3-2-1-0----------------|
 p.m.....


 Riff .2 INTRO x4

|----------------------------------|
|----------------------------------|
|----------------------------------|
|----------------------------------|
|-4--------1-2---------------------|
|-4--------1-0---------------------|




 FILL 1

|------------|
|------------|
|------------|
|------------|
|-4--------1-|
|-4--------1-|



 Riff 3  x4

|Kerry:
|-------------------------|
|-------------------------|
|-------------------------|
|-------------------------|
|-2-5-2-5-4-3-2-52--5-4-3-|
|-0-3-0-3-2-1-0-30--3-2-1-|
| . . . . . . . ..  . . .
|
|Jeff:
|-------------------------|
|-------------------------|
|-------------------------|
|-------------------------|
|---5---5-4-3---5---5-4-3-|
|-0-3-0-3-2-1-0-30--3-2-1-|
  . . . . . . . ..  . . .



 Riff 4. 4X


|----------------------------------|
|----------------------------------|
|----------------------------------|
|----------------------------------|
|-4--------1-2---------------------|
|-4--------1-0-0-0-0-0-0-0-0-0-0-0-|
       p.m    . . . . . . . . . . .




 Riff 5. x4

|----------------|
|----------------|
|----------------|
|-----9^-8^------|
|-----------10^--|
|-0-0------------|
  . .


 Riff 6.  x3

|Kerry:
|------------------|
|------------------|
|------------------|
|-----4---3--------|
|-----2---1---4/5--|
|-0-0---0---0-1/3--|
| . .   .   .
|
|Jeff:
|------------------|
|------------------|
|------------------|
|------------------|
|-----9---8---3/5--|
|-0-0-7-0-6-0-1/3--|
  . .   .   .


Solo: Hanneman...


Riff 7. 12X (po solo)


|----------------------------------|
|----------------------------------|
|----------------------------------|
|----------------------------------|
|-2----2-2-2-3-3-3-5-5-3-3-3-3-3-3-|
|-0----0-0-0-1-1-1-3-3-1-1-1-1-1-1-|
       . . . . . . . . . . . . . .


|------------------|
|------------------|
|------------------|
|------------------|
|-2----------------|
|-0----------------|

Dodaj komentarz ...i/lub link do filmiku video

Zaloguj się do serwisu
Wszelkie materiały i wypowiedzi zamieszczone na www.chords.pl są własnością ich autorów.