Zacznij systematycznie uczyć się grać na gitarze razem ze stroną Moja nauka - będziesz miał/miała do niej dostęp po zalogowaniu się w serwisie

Season in the Abyss - Slayer

Opracował -a: Riffx,
Redaktor: Miłosz,
Data publikacji: 2006-11-17 00:10
 
Moja nauka


Ups, problem :-/
Zaloguj się Mój śpiewnik
Slayer - Season In the Abyss


Riff 1, Jeff Hanneman:

1---0----------------|---0----------------|
2---0----------------|---0----------------|
3--------------------|--------------------|
4-2-------2------3-3-|-2-------2------3-3-|
5-2------2---1^--3-3-|-2------2---1^--3-3-|
6-0--------------1-1-|-0--------------1-1-|

Riff 2 - Wchodzi 2 gitara K.King

1---------0----------------|----------0----------------|
2---------0----------------|----------0----------------|
3--------------------------|---------------------------|
4---------------2------3-3-|----------------2------3-3-|
5----3-2~------2---1^--3-3-|-----3-2~------2---1^--3-3-|
6-0-1------------------1-1-|-0-1------------------1-1--|

Kerry KIng: intro solo:

1---------------12---------|---------------12--------|
2------13-12--12-----------|------13-12--12----------|
3---14-------------15^-----|---14-------------15^----|
4-15-------------------3-3-|-15-------------------33-|
5----------------------3-3-|----------------------33-|
6----------------------1-1-|----------------------11-|

To gramy na cleanie:

1----0--------0--------0--------0----0---|
2---0-0------0-0------0-0------0----0----|
3--3---3-3--3---3-3--3---3-3--3----3-----|
4-2-----2--2-----2--3-----3--------------|
5----------------------------3----2------|
6----------------------------------------|
Riff 3   4X
1-----------------------|
2-----------------------|
3------------------5--4-|
4--2--------3------5--4-|
5--2--------3------3--2-|
6--0--------1------3--2-|


Riff 5 Kerry King: 3 X
1---------------------------------|
2---------------------------------|
3---------------------------------|
4--------------------------2---1--|
5--------------------------2---1--|
6-0-2-3--0-2-3-5--0-2-3-0---30--2-|

Po Riffie 5 jeden raz Riff 6

Riff 5. ciąg dalszy:

1--------------------------------|
2--------------------------------|
3--------------------------------|
4----------------------------5-4-|
5----------------------------5-4-|
6-0-2-3--0-2-3-5--0-2-3-2-0--3-2-|


Zwtorka: Kerry King & Jeff Hanneman

1----------------------------------------------------------|
2----------------------------------------------------------|
3--------------------------------------------------------1-|
4-2-222-1-2-222--2-222---2-222--2-222-1-2-222--2-22222---1-|
5-2-222-1-2-222--2-222-2-2-222--2-222-1-2-222--2-22222-3---|
6----------------------1-------------------------------3---|

1----------------------------------------------------------|
2----------------------------------------------------------|
3----------------------------------------------------------|
4-2-222-1-2-222--2-222---2-222--2-222-1-2-222--2-22222-5-4-|
5-2-222-1-2-222--2-222-2-2-222--2-222-1-2-222--2-22222-5-4-|
6----------------------1-------------------------------3-2-|

Refren:

1-------------------|
2-------------------|
3---------5---------|
4-2---3---5-----5-4-|
5-2---3---3-----5-4-|
6-0---1---3-----3-2-|


Riff 5 Kerry King:

1---------------------------------|
2---------------------------------|
3---------------------------------|
4--------------------------2---1--|
5--------------------------2---1--|
6-0-2-3--0-2-3-5--0-2-3-0---30--2-|

1--------------------------------|
2--------------------------------|
3--------------------------------|
4----------------------------5-4-|
5----------------------------5-4-|
6-0-2-3--0-2-3-5--0-2-3-2-0--3-2-|
Solo:

Dodaj komentarz ...i/lub link do filmiku video

Zaloguj się do serwisu
Wszelkie materiały i wypowiedzi zamieszczone na www.chords.pl są własnością ich autorów.