Zacznij systematycznie uczyć się grać na gitarze razem ze stroną Moja nauka - będziesz miał/miała do niej dostęp po zalogowaniu się w serwisie

South Of Heaven - Slayer

Opracował -a: Riffx,
Redaktor: Tomek Pietrzkowski,
Data publikacji: 2006-08-17 14:25
 
Moja nauka


Ups, problem :-/
Zaloguj się Mój śpiewnik
Gitara.1
Riff 1.
|-------------------------------|---------------------------
|-------------------------------|---------------------------
|-----------9---8----7---7-6----|-----------9---8----7--6tr7
|------9-10--10---9----8--------|------9-10--10---9----8----
|---7---------------------------|---7----------------------
|-0-----------------------------|-0-------------------------

Gitara.2
Riff 2.
|-------------------------------|---------------------------
|-------------------------------|---------------------------
|----------4---3----2---2-1-----|----------4---3----2---1tr2
|------2-5---5---4----3---------|------2-5---5---4----3-----
|---2---------------------------|---2-----------------------
|-0-----------------------------|-0-------------------------

Gitara. 1
Riff 3.
|-------------------------------|---------------------------
|-------------------------------|---------------------------
|-------------------------------|---------------------------
|-------------------------------|---------------------------
|------10----8---7-----10-------|------10----8---7-----10---
|0-0-0-0-0-0-0-0-0-0-0-0-0-0-1-1|0-0-0-0-0-0-0-0-0-0-0-0-0-1





Gitara 1 i 2
Refren:
Riff 4. 6X
|-------------------------------|---------------------------
|-------------------------------|---------------------------
|-------------------------------|---------------------------
|-------------5--------3--------|-------------5----------3--
|-------------5--------3--------|-------------5----------3--
|-0-0--0---0--3--0--0--1--0-----|-0-0--0---0--3--0-0--0--1--

Riff 5.
|-------------------------------|---------------------------
|-------------------------------|---------------------------
|-------------------------------|--------------------------5
|-------------------------------|---------------------------
|---4-------------4-------------|--4--------4--------4------
|---2--2--2-2--2--2--2--6\0-----|--2-2--2---2-2--2---2-2-2-


|-------------------------------|---------------------------
|-------------------------------|---------------------------
|-------------------------------|--------------------3------
|-------------------------------|--------------------3------
|---4-------4-------4-----------|---4-------4--------1------
|---2-2--2--2-2--2--2-2--2--5\0-|---2-2--2--2-2-2-0-----3--



Gitara 1.
Riff 6.
|-------------------------------|---------------------------
|-------------------------------|---------------------------
|-----------------------------10|-9-------------------------
|-2-------9-------------------10|-9---------9---------------
|-2----10-----8---7-----10----8-|-7-----10------8---7---10--
|-0---------0-0-0-0-0-0-0-0-0---|---0-0-0-0-0-0-0-0-0-0-0-0-
Gitara 2.
|--------------------------------|--------------------------
|--------------------------------|--------------------------
|--------------------------------|--------------------------
|--------------------------------|--------------------------
|-------10----8---7-----10-------|-------10----8---7-----10-
|-0-0-0-0-0-0-0-0-0-0-0-0-0-0-1-1|-0-0-0-0-0-0-0-0-0-0-0-0-



Riff 7.
Gitara 1.

|--------------------------------|--------------------------
|--------------------------------|--------------------------
|--------------------------------|------------------1---2---
|---------6---5--------5---------|---4--------------2---3---
|---------6---5--------5---------|---4----------------------
|---0--0--4---3--0--0--3---------|---2--0--0--0--0----------



Gitara 1.
Riff 8. 2X
|-------------------------------|---------------------------
|-------------------------------|---------------------------
|----------------------------5--|---------------------------
|---------6----5----------------|---------------------------
|---------6----5----------------|---------------------------
|---0--0--4----3--0--0----------|-6-------------------------
Gitara 2.
|-------------------------------|---------------------------
|-------------------------------|---------------------------
|-------------------------------|-----------------------9---
|----------6 ----5-----------5--|--4------------------------
|----------6-----5-----------5--|--4--------------------7---
|--0---0---4-----3---0---0---3--|--2----0---0---0---0-------
Solo.

Dodaj komentarz ...i/lub link do filmiku video

Zaloguj się do serwisu
Wszelkie materiały i wypowiedzi zamieszczone na www.chords.pl są własnością ich autorów.