Zacznij systematycznie uczyć się grać na gitarze razem ze stroną Moja nauka - będziesz miał/miała do niej dostęp po zalogowaniu się w serwisie

Postmortem - Slayer

Opracował -a: Riffx,
Redaktor: Riffx,
Data publikacji: 2007-07-04 00:02, Poprawiono 2009-03-23 17:00
 
Moja nauka


Ups, problem :-/
Zaloguj się Mój śpiewnik
e|------------------------------------------------------------------|
B|------------------------------------------------------------------|
G|--9--------------10-\-9----9-/-10-----11-\-9----------------------|
D|--9--------------10-\-9----9-/-10-----11---9----------------------|
A|--7---------------8-\-7----7-/--8------9-\-7----------------------|
E|--0----0-0-0------------0--------0--------------------------------|



e|------------------------------------------------------------------|
B|------------------------------------------------------------------|
G|---------10-\-9----9-/-10------8---8------------------------------|
D|---------10-\-9----9-/-10------8---8------------------------------|
A|----------8-\-7----7-/--8------6---6-----8--6------6--5-----------|
E|--0-0-0----------0---------0-------------------7---------7--------|


e|------------------------------------------------------------------|
B|------------------------------------------------------------------|
G|------------------------------------------------------------------|
D|--3--------------------2------------------------------------------|
A|-----5-4-3---------------4-3-2------------------------------------|
E|------------5--4----------------4--3------------------------------|



e|------------------------------------------------------------------|
B|------------------------------------------------------------------|
G|------------------------------------------------------------------|
D|--2--3----------------------2--3---------------------2--3---------|
A|--2--3----------------------2--3---------------------2--3---------|
E|--0--1---0-0-0-0-0-0-0-0-0--0--1--0-0-0-0-0-0-0-0-0--0--1---------|



e|------------------------------------------------------------------|
B|------------------------------------------------------------------|
G|------------------------------------------------------------------|
D|-----------------2---3-3-3--6-6-6--5-5-5--3-3-3-------------------|
A|-----------------2---3-3-3--6-6-6--5-5-5--3-3-3-------------------|
E|-0-0-0-0-0-0-0-0-0---1-1-1--4-4-4--3-3-3--1-1-1-------------------|



e|------------------------------------------------------------------|
B|------------------------------------------------------------------|
G|------------------------------------------------------------------|
D|--6----6-6-6-5-5-5-8-8-8-4----4-4-4-4-4-4-4-4-4-4-----------------|
A|--6----6-6-6-5-5-5-8-8-8-4----4-4-4-4-4-4-4-4-4-4-----------------|
E|--4----4-4-4-3-3-3-6-6-6-2----2-2-2-2-2-2-2-2-2-2-----------------|


e|------------------------------------------------------------------|
B|------------------------------------------------------------------|
G|------------------------------------------------------------------|
D|--6----6-6-6-5-5-5-8-8-8-9----9-9-9-9-9-9-9-9-9-9-----------------|
A|--6----6-6-6-5-5-5-8-8-8-9----9-9-9-9-9-9-9-9-9-9-----------------|
E|--4----4-4-4-3-3-3-6-6-6-7----7-7-7-7-7-7-7-7-7-7-----------------|



e|----------------------------|
B|----------------------------|
G|----------------------------|  x3 
D|--2--3----------------------|
A|--2--3----------------------|
E|--0--1---0-0-0-0-0-0-0-0-0--|



e|------------------------------------------------------------------|
B|------------------------------------------------------------------|
G|------------------------------------------------------------------|
D|---------3--------------2-----------------------------------------|
A|-----------5-4-3-----------4-3-2----------------------------------|
E|--0-0-0-----------5-4------------4-3------------------------------|



e|------------------------------------------------------------------|
B|------------------------------------------------------------------|
G|------------------------------------------------------------------|
D|--------------------------------6-5-------------------------------|
A|----7-6-5-----6-5----7-6-5-4-3------------------------------------|
E|-0--------4-3------0----------------------------------------------|



e|------------------------------------------------------------------|
B|------------------------------------------------------------------|
G|------------------------------------------------------------------|
D|-----6------------------------------------------------------------|
A|-----6------------------------------------------------------------|
E|-----4------------------------------------------------------------|

Dodaj komentarz ...i/lub link do filmiku video

Zaloguj się do serwisu
Wszelkie materiały i wypowiedzi zamieszczone na www.chords.pl są własnością ich autorów.