Zacznij systematycznie uczyć się grać na gitarze razem ze stroną Moja nauka - będziesz miał/miała do niej dostęp po zalogowaniu się w serwisie

Jesus Saves - Slayer

Opracował -a: Riffx,
Redaktor: Miłosz,
Data publikacji: 2006-11-14 00:10
 
Moja nauka


Ups, problem :-/
Zaloguj się Mój śpiewnik
Slayer - Jesus Saves

Riff 1 K.King
|------------------------------------|-------------------------------------|
|------------------------------------|-------------------------------------|
|------------------------------------|-------------------------------------|
|-----1---1-----1---1-----4-3-1h2p1--|-----1---1-----1---4-3-----4-3-------|
|-----1---1-----1---1-----2-1--------|-----1---1-----1---2-1-4-6-2-1-------|
|-0-0---0---0-0---0---0-0------------|-0-0---0---0-0---0-----2-4-----------|
| . .   .   . .   .   . .              . .   .   . .   .     . .
|
|J.Hanneman
|------------------------------------|-------------------------------------|
|------------------------------------|-------------------------------------|
|------------------------------------|-------------------------------------|
|-(3)--------------------------------|-------------------------------------|
|-(1)--------------------------------|-2-----------------------------------|
|------------------------------------|-0-----------------------------------|
                                        x


|K.King
|------------------------------------|-------------------------------------|
|------------------------------------|-------------------------------------|
|------------------------------------|-------------------------------------|
|-----1---1-----1---1-----4-3-1h2p1--|-----1---1-----1-----4---------3-----|
|-----1---1-----1---1-----2-1--------|-----1---1-----1-----2---------1-----|
|-0-0---0---0-0---0---0-0------------|-0-0---0---0-0---0-0-------0-0-------|
| . .   .   . .   .   . .              . .   .   . .   . .       . .
|
|J.Hanneman
|------------------------------------|-------------------------------------|
|------------------------------------|-------------------------------------|
|------------------------------------|-------------------------------------|
|-----1------------------------------|-----1---------------4---------3-----|
|-----1-------2-------2-------2------|-----1-------2-------2---------1-----|
|-------------0-------0-------0------|-------------0---0-0-------0-0-------|
       x       x       x       x            x       x  . .       . .



 Razem: 2 gitary

|------------------------------------|-------------------------------------|
|------------------------------------|-------------------------------------|
|------------------------------------|-------------------------------------|
|-----1---1-----1---1-----4-3-1h2p1--|-----1---1-----1---4-3-----4-3-------|
|-----1---1-----1---1-----2-1--------|-----1---1-----1---2-1-4-6-2-1-------|
|-0-0---0---0-0---0---0-0------------|-0-0---0---0-0---0-----2-4-----------|
  . .   .   . .   .   . .              . .   .   . .   .     . .



|------------------------------------|-------------------------------------|
|------------------------------------|-------------------------------------|
|------------------------------------|-------------------------------------|
|-----1---1-----1---1-----4-3-1h2p1--|-----1---1-----1-----4---------3-----|
|-----1---1-----1---1-----2-1--------|-----1---1-----1-----2---------1-----|
|-0-0---0---0-0---0---0-0------------|-0-0---0---0-0---0-0-------0-0-------|
  . .   .   . .   .   . .              . .   .   . .   . .       . .



 RIFF 2

|-----------------------------------------|
|-----------------------------------------|
|-----------------------------------------|
|-----------------------------------------|
|-----------------------------------------|
|-0---000---0000000---0000000---0000000---|
  .   ...   .......   .......   .......


|-----------------------------------------|
|-----------------------------------------|
|-----------------------------------------|
|-----------------------------------------|
|-----------------------------------------|
|-0000000---0000000---0000000---0000018\\-|
  .......   .......   .......   .....



 RIFF 3

|K.King
|-----------------------------------------|
|-----------------------------------------|
|-----------------------------------------|
|-----------------------------------------|
|-----------------------------------------|
|-0---000---0000000---0000000---0000000---|
| .   ...   .......   .......   .......
|
|J.Hanneman
|-----------------------------------------|
|-----------------------------------------|
|-----------------------------------------|
|-----------------------------------------|
|-7-7-7---8-----8----111111--10----10-----|
|-5-5-5---6-----6-----9-9-9---8-----8-----|



|K.King
|-----------------------------------------|
|-----------------------------------------|
|-----------------------------------------|
|-----------------------------------------|
|---------------------------------2-------|
|-0000000---0000000---0000000---000-------|
| .......   .......   .......   ..
|
|J.Hanneman
|-----------------------------------------|
|-----------------------------------------|
|-----------------------------------------|
|-----------------------------------------|
|-7-7-7---8-----8----111111--10-----------|
|-5-5-5---6-----6-----9-9-9---8----17\\\\-|



|
|-----------------------------------------|
|-----------------------------------------|
|-----------------------------------------|
|-----------------------------------------|
|-7-7-7---8-----8----111111--10----10-----|
|-5-5-5---6-----6-----9-9-9---8-----8-----|



|K.King
|-----------------------------------------|
|-----------------------------------------|
|-----------------------------------------|
|-----------------------------------------|
|-7-7-7---8-----8----111111--10----10-----|
|-5-5-5---6-----6-----9-9-9---8-----8-----|
|                     . . .
|
|J.Hanneman
|-----------------------------------------|
|-----------------------------------------|
|-----------------------------------------|
|-----------------------------------------|
|-7-7-7---8-----8----111111--101010101010-|
|-5-5-5---6-----6-----9-9-9---8-8-8-8-8-8-|
                      . . .   . . . . . .



 RIFF 4

|K.King
|---------------------|---------------------------|
|---------------------|---------------------------|
|---------------------|---------------------------|
|---------------------|---------------------------|
|-----8-7---8-7-11-10-|-----8-7---8-7-11-10h11p10-|
|-0-0-----0-----------|-0-0-----0-----------------|
  . .     .             . .     .


|K.King x1
|---------------------|---------------------------|
|---------------------|---------------------------|
|----10-9--10-9-13-12-|----10-9--10-9-13----------|
|----10-9--10-9-13-12-|----10-9--10-9-13-12h13p12-|
|---------------------|---------------------------|
|-0-0-----0-----------|-0-0-----0-----------------|
| . .     .             . .     .
|
|J.Hanneman x1
|---------------------|---------------------------|
|---------------------|---------------------------|
|---------------------|---------------------------|
|----10-9--10-9-13-12-|----10-9--10-9-13-12h13p12-|
|---------------------|---------------------------|
|-0-0-----0-----------|-0-0-----0-----------------|
  . .     .             . .     .



 RIFF 5 x1

|K.King
|----------------------------------------|
|----------------------------------------|
|----------------------------------------|
|----------------------------------------|
|-2--------5----------7----------6-9-8---|
|-00000000-3-00000000-5-00000000-4-7-6---|
| ........   ........   ........
|
|J.Hanneman
|----------------------------------------|
|----------------------------------------|
|----------------------------------------|
|----------------------------------------|
|-2--------------------------------------|
|-0--------------------------------------|
   x


|K.King 2x
|----------------------------------------|
|----------------------------------------|
|----------------------------------------|
|----------------------------------------|
|-2--------5----------7----------6-9-8---|
|-00000000-3-00000000-5-00000000-4-7-6---|
| ........   ........   ........
|

|
|J.Hanneman
|----------------------------------------|
|----------------------------------------|
|----------------------------------------|
|----------------------------------------|
|----------------------------------------|
|-00000000000000000000000000000000000000-|
  ......................................


|K.King
|----------------------------------------|
|----------------------------------------|
|----------------------------------------|
|----------------------------------------|
|-2--------5----------7----------6-9-8---|
|-00000000-3-00000000-5-00000000-4-7-6---|
| ........   ........   ........
|
|Jeef Hanneman
|----------------------------------------|
|----------------------------------------|
|----------------------------------------|
|----------------------------------------|
|----------------------------------------|
|-000000000000000000000000000000000019\\-|
  ..................................



 RIFF 5 - kontynuacja

|----------------------------------------|
|----------------------------------------|
|----------------------------------------|
|----------------------------------------|
|-2--------5----------7----------6-9-8---|
|-00000000-3-00000000-5-00000000-4-7-6---|
  ........   ........   ........



 RIFF 6  x3

|----------------------------------------|
|----------------------------------------|
|----------------------------------------|
|----------------------------------------|
|------------------------------7----8----|
|-0000006530000006530000006530-5----6----|
  ............................


Solo.

Dodaj komentarz ...i/lub link do filmiku video

Zaloguj się do serwisu
Wszelkie materiały i wypowiedzi zamieszczone na www.chords.pl są własnością ich autorów.