Zacznij systematycznie uczyć się grać na gitarze razem ze stroną Moja nauka - będziesz miał/miała do niej dostęp po zalogowaniu się w serwisie

Radio Taxi (tab) - Budka Suflera

Opracował -a: Seba,
Dodał -a: Seba,
Redaktor: Seba,
Data publikacji: 2010-09-04 10:20
 
Moja nauka


Ups, problem :-/
Zaloguj się Mój śpiewnik
Intro, Zw:


E1|----------------------------|
H|-----------------------------|
G|-----------2-----------------|
D|-------2-4---------2-4-4-2---|
A|---0-4-----------4---------4-|
E6|------------0-2-------------|


Zagrywka:


E1|---------------|
H|-----0-2-0------|
G|-----------2-4b-|
D|---2------------|
A|----------------|
E6|---------------|

Dodaj komentarz ...i/lub link do filmiku video

Zaloguj się do serwisu
Wszelkie materiały i wypowiedzi zamieszczone na www.chords.pl są własnością ich autorów.