Zacznij systematycznie uczyć się grać na gitarze razem ze stroną Moja nauka - będziesz miał/miała do niej dostęp po zalogowaniu się w serwisie

Stąd do gwiazd - Budka Suflera

Opracował -a: pksprzystanek,
Dodał -a: pksprzystanek,
Redaktor: Seba,
Pochodzi z: http://www.chords.pl/
Data publikacji: 2013-12-15 18:30
 
Moja nauka


Ups, problem :-/
Zaloguj się Mój śpiewnik
Intro i refren

E-----------------------------------------------------------------------------------------
B-----------------------------------------------------------------------------------------
G-----------------------------------------------------------------------------------------
D-----------------------------------------------------------------------------------------
A-----3---5--5----3---3-2--------0---5---5-------------------3---5----5-----3---3-2-------
E-5-5---5------3----------3--1-1---1-------0---5--5-0-3--5-5---5--------3-----------3---1-

E---------------------------
B---------------------------
G---------------------------
D---------------------------
A---0---5---5---------------
E-1---1-------0---5---------

Zwrotka

E---------------------------------------------------------------------------------------
B---------------------------------------------------------------------------------------
G--------------------7-----7---------------7-----7--------------------------------------
D--7-7-7-7-7-7-7-7-----------7-----7-7-7-----------7-----7-7-7-----7-----7-9-----9-9-9--
A--------------------5-----5---------------5-----5--------------------------------------
E--5-5-5-5-5-5-5-5-----------5-----5-5-5-----------5-----5-5-5-----5-----5-7-----7-7-7--

Przejście

E----------------------------------------------------------------------
B----------------------------------------------------------------------
G----------------------------------------------------------------------
D--7-7-7-7-7-7-7-7--5-5-5-5-5-5-5-5------------------------------------
A--5-5-5-5-5-5-5-5--3-3-3-3-3-3-3-3--7-7-7-7-7-7-7-7--5-5-5-5-5-5-5-5--
E------------------------------------5-5-5-5-5-5-5-5--3-3-3-3-3-3-3-3--

E----------------------------------------------------------------------
B----------------------------------------------------------------------
G----------------------------------------------------------------------
D--7-7-7-7-7-7-7-7--5-5-5-5-5-5-5-5------------------------------------
A--5-5-5-5-5-5-5-5--3-3-3-3-3-3-3-3--7-7-7-7-7-7-7-7----------3--------
E------------------------------------5-5-5-5-5-5-5-5--3-3-5-3---5-3----

Solo

E--------------------------------------------------------------------
B--13-12-8--8h10--8-10-8----13-12-8--8h10--8-10-8-------8--------12--
G--------------------------------------------------------------------
D--------------------------------------------------9-10----12-14-----
A--------------------------------------------------------------------
E--------------------------------------------------------------------

E-------------------------------------------------------------------------------------------
B--13-12-8--8h10--8-10-8----13-12-8--8h10--8-10-8-------8-----------------------------------
G-------------------------------------------------------------------------------------------
D--------------------------------------------------9-10-------------------------------------
A------------------------------------------------------------------------------------3------
E----------------------------------------------------------3-5-3-5-3-5-3-5---3---5-3---5-3--
Dodał: pksprzystanek, 2013-12-15 18:33
Opracowania video z komentarzy

Dodaj komentarz ...i/lub link do filmiku video

Zaloguj się do serwisu
Wszelkie materiały i wypowiedzi zamieszczone na www.chords.pl są własnością ich autorów.