Zacznij systematycznie uczyć się grać na gitarze razem ze stroną Moja nauka - będziesz miał/miała do niej dostęp po zalogowaniu się w serwisie

Ragtime - Budka Suflera

Opracowali: 1043104, zuku91,
Dodał -a: zuku91,
Redaktor: Tomek Pietrzkowski,
Pochodzi z: http://www.chords.pl
Data publikacji: 2007-02-05 00:02
 
Moja nauka


Ups, problem :-/
Zaloguj się Mój śpiewnik
Wstęp:

Gitara I

E|--------------------------------------------------------------------------------------------
H|--------------------------------------------------------------------------------------------
G|----------------7-9--11h9-11--12h11-12----11h12-14--12h11-12--11h9-11------9--11h9-11-12h11-
D|---------7-9-10-----------------------------------------------------------------------------
A|--7-9-10------------------------------------------------------------------------------------
E|--------------------------------------------------------------------------------------------

E|-----------------------------------------------------------------------------
H|-----------------------------------------------------------------------------
G|-12---11h12-14--12h11-12--11h9-11---9h11-12---------12h14--12h11-12--11h9-11-
D|----------------------------------------------9-9----------------------------
A|-----------------------------------------------------------------------------
E|-----------------------------------------------------------------------------


Gitara II (gra w harmonii z I)

E|------------------------------------------------------------------------------------------
H|------------------10----------------------------------------------------------------------
G|----------9-11-12----12--14h12-14--16h14-16---14h16-17--16h14-16--14h12-14---12--14h12-14-
D|--9-11-12---------------------------------------------------------------------------------
A|------------------------------------------------------------------------------------------
E|------------------------------------------------------------------------------------------

E|----------------------------------------------------------------------------------------
H|----------------------------------------------------------------------------------------
G|--16h14-14---14h16-17--16h14-16--14h12-14---12h14-16--12-12---16h17--16h14-16--14h12-14-
D|----------------------------------------------------------------------------------------
A|----------------------------------------------------------------------------------------
E|----------------------------------------------------------------------------------------


e                           C
Czy ty czujesz ten ..
e                   A       a7
Nie ma dziś nic...
e                           C
Wokół piwo i gwar...
  a                 D       H
Znad klawiatury dym...

przejście: e H C H

e                             C
Nie ma miejsca na spalin...
e                   A       a7
Tu może być tylko...
  e                           C
Wielki bal sobie spraw,...
a                           H
Jedynie napis błyszczy...
H
Póki dla nas...


 e  D     G
Biednym..
        a               G        D
Dla nas dzień, dla ...
Głupim żal
A tu zgiełk...
         e
Tylko ragtime
        C           G      D
A tu zgiełk...
Tylko...
A tu brzęk..

przejście: e HC H /x2

Tab do wstępu dodany przez użytkownika zuku91

Dodaj komentarz ...i/lub link do filmiku video

Zaloguj się do serwisu
Wszelkie materiały i wypowiedzi zamieszczone na www.chords.pl są własnością ich autorów.