Zacznij systematycznie uczyć się grać na gitarze razem ze stroną Moja nauka - będziesz miał/miała do niej dostęp po zalogowaniu się w serwisie

Pieśń pożegnalna - Piosenki Harcerskie

Opracował -a: qolica,
Redaktor: Tomek Pietrzkowski,
Pochodzi z: http://www.chords.pl
Data publikacji: 2008-05-28 00:01
 
Moja nauka


Ups, problem :-/
Zaloguj się Mój śpiewnik
1.  A           E            A               D
Ogniska już dogasa blask braterski splećmy krąg
      A               E                  D/E           A
W wieczornej ciszy, w świetle gwiazd - ostatni uścisk rąk

REF. A             E               A              D
Kto raz przyjaźni poznał smak nie będzie trwonić słów
      A              E            D/E         A
Przy innym ogniu, w inną noc - do zobaczenia znów

2.
Nie zgaśnie tej przyjaźni żar co połączyła nas
Nie pozwolimy, by ją starł nieubłagany czas

REF.

TAB
---------------|--------------|-----------------0--2--|
---------------|--2--0-----0--|--2--0--------2--------|
------2--1--2--|--------2-----|--------2--2-----------|
---2-----------|--------------|-----------------------|
---------------|--------------|-----------------------|
---------------|--------------|-----------------------|

---2--0--------|--------------|-----------------------|
---------2--2--|-----0-----0--|--2--0-----2--0--------|
---------------|--2-----2-----|--------2--------2--2--|
---------------|--------------|-----------------------|
---------------|--------------|-----------------------|
---------------|--------------|-----------------------|

---2--0--------|--------------|--2--0---------0--2----|
---------2--2--|-----0-----0--|--------2---2----------|
---------------|--2-----2-----|-----------------------|
---------------|--------------|-----------------------|
---------------|--------------|-----------------------|
---------------|--------------|-----------------------|

---2--0--------|--------------|-----------------------||
---------2--2--|-----0-----0--|--2--0-----2--0--------||
---------------|--2-----2-----|--------2--------2--2--||
---------------|--------------|-----------------------||
---------------|--------------|-----------------------||
---------------|--------------|-----------------------||

Dodaj komentarz ...i/lub link do filmiku video

Zaloguj się do serwisu
Ostatnie komentarze
1.
Rafał
2008-05-28 15:11
Jakoś ta wersja dziwnie brzmi na moje ucho. Lepiej brzmi ta druga wersja umieszczona w tym dziale. Lepiej się nauczyc trudniejszych chwytów i grac tak by to jakos dalo sie spiewac
Wszelkie materiały i wypowiedzi zamieszczone na www.chords.pl są własnością ich autorów.