Zacznij systematycznie uczyć się grać na gitarze razem ze stroną Moja nauka - będziesz miał/miała do niej dostęp po zalogowaniu się w serwisie

Płonie ognisko - Piosenki Harcerskie

Opracował -a: Tressio,
Dodał -a: Tressio,
Redaktor: Tomek Pietrzkowski,
Pochodzi z: http://www.chords.pl/
Data publikacji: 2018-04-21 17:51
 
Moja nauka


Ups, problem :-/
Zaloguj się Mój śpiewnik


Tabulatura:

E1 |---------0-2-3--|-5-3-2---3-2-0--|-----------0-2--|-----3---2---0--|
H2 |----------------|----------------|-0-------4------|-0--------------|
G3 |----------------|----------------|----------------|----------------|
D4 |----------------|----------------|----------------|----------------|
A5 |----------------|----------------|----------------|----------------|
E6 |----------------|----------------|----------------|----------------|

E1 |---------0-2-3--|-5-3-2---3-2-0--|----------------|-8---7----------|
H2 |----------------|----------------|-0-------4-5-7--|---------4---5--|
G3 |----------------|----------------|----------------|----------------|
D4 |----------------|----------------|----------------|----------------|
A5 |----------------|----------------|----------------|----------------|
E6 |----------------|----------------|----------------|----------------|

E1 |---------3-5-7--|-7---8-7-5-3-7--|-5-------2-3-5--|-5---7-5-3-2-5--|
H2 |----------------|----------------|----------------|----------------|
G3 |----------------|----------------|----------------|----------------|
D4 |----------------|----------------|----------------|----------------|
A5 |----------------|----------------|----------------|----------------|
E6 |----------------|----------------|----------------|----------------|

E1 |-3-------0-2-3--|-5-3-2---3-2-0--|----------------|-8---7----------|
H2 |----------------|----------------|-0-------4-5-7--|---------4---5--|
G3 |----------------|----------------|----------------|----------------|
D4 |----------------|----------------|----------------|----------------|
A5 |----------------|----------------|----------------|----------------|
E6 |----------------|----------------|----------------|----------------|



Akordy:

Płonie ognisko i szumią knieje,  d A7 d
Drużynowy jest wśród nas.        A7 d
Opowiada starodawne dzieje,      d A7 d
Bohaterski wskrzesza czas.       g A7 d

    O rycerstwie spod kresowych stanic,    F C
    O obrońcach naszych polskich granic,   A7 d
    A ponad nami wiatr szumny wieje,       d A7 d
    I dębowy huczy las                     g A7 d

Już do odwrotu głos trąbki wzywa,
Alarmując ze wszech stron.
Wstaje wiara w ordynku szczęśliwa,
Serca biją w zgodny ton.

    Każda twarz się z uniesienia płoni,
    Każdy laskę krzepko dzierży w dłoni,
    A z młodzieńczej się piersi wyrywa,
    Pieśń potężna pieśń jak dzwon.
Dodał: Tressio, 2018-04-21 17:58
Opracowania video z komentarzy

Dodaj komentarz ...i/lub link do filmiku video

Zaloguj się do serwisu
Wszelkie materiały i wypowiedzi zamieszczone na www.chords.pl są własnością ich autorów.