Zacznij systematycznie uczyć się grać na gitarze razem ze stroną Moja nauka - będziesz miał/miała do niej dostęp po zalogowaniu się w serwisie

Rozstań czas - Piosenki Harcerskie

Dodał -a: Mańkut,
Redaktor: Tomek Pietrzkowski,
Data publikacji: 2007-02-12 00:02
 
Moja nauka


Ups, problem :-/
Zaloguj się Mój śpiewnik


e|------------------------------------------------------------------
B|------------------------------------------------------------------
G|------------------------------------------------------------------
D|--2-2-0-----2-2-0-----2-2-0-4-5-4-5-7-9-7-5-4-2-2-0-4-2-----------
A|--------0-2-------0-2---------------------------------------------
E|------------------------------------------------------------------

e|------------------------------------------------------------------
B|------------------------------------------------------------------
G|------------------------------------------------------------------
D|--2-2-0-----2-2-0-----2-2-0-4-5-4-5-7-9-7-5-4-2-2-0-4-2-----------
A|--------0-2-------0-2---------------------------------------------
E|------------------------------------------------------------------

etc.

Dodaj komentarz ...i/lub link do filmiku video

Zaloguj się do serwisu
Ostatnie komentarze
1.
Paulina Siwa
2008-07-25 15:34
cos mi tam nie pasi,
2.
drim
2007-03-10 16:40
a tam od 5-4-2 to powtóreczka:)
3.
drim
2007-03-10 16:39
e|--2-2-0-----2-2-5-0-2----2-2-0-----2-2-5-0-2--2-2-0---------0-5-2--2-2-0-4-5---5-4-2--0-2-4-0--2-2-0-2-| h|--------0-2--------------------0-2------------------0-2-2-0--------------------------------------------|
Wszelkie materiały i wypowiedzi zamieszczone na www.chords.pl są własnością ich autorów.