Zacznij systematycznie uczyć się grać na gitarze razem ze stroną Moja nauka - będziesz miał/miała do niej dostęp po zalogowaniu się w serwisie

Ukraina - Hej sokoły (tab) - Piosenki Harcerskie

Dodał -a: wera20014,
Redaktor: Tomek Pietrzkowski,
Data publikacji: 2011-07-01 11:47
 
Moja nauka


Ups, problem :-/
Zaloguj się Mój śpiewnik


1. Hej, tam gdzieś znad czarnej wody      a   bicie: vv^|^v^  x2

Siada na koń kozak młody,                 E  vv^|^v^   x2

Czule żegna się z dziewczyną,             a  vv^|^v^   x2

Jeszcze czulej | z Ukra|iną.              E  vv^|^v^   a  vv^  G vv



ref: Hej, hej, hej sokoły                C   vv^|^v^   x2

Omijajcie góry, lasy, doły               G   vv^|^v^   x2

Dzwoń, dzwoń, dzwoń dzwoneczku,          a   vv^|^v^   x2

Mój stepowy | skowron|eczku.             E   vv^|^v^  a vv^  G vv

Hej, hej, hej sokoły

omijajcie góry lasy doły                 druga część refranu prawie tak samo
                                         tylko rze końcówka inna
dzwoń, dzwoń, dzwoń dzwoneczku

mój stepowy, | dzwoń | dzwoń | dzwoń     E vv^|^v^   a  v   E  v    a  v



2. Wiele dziewcząt jest na świecie

Lecz najwięcej w Ukrainie,

Tam me serce pozostało,

Przy kochanej mej dziewczynie.



Hej, hej...



3. Ona jedna tam została,

jaskółeczka moja, moja mała,

A ja tutaj w obcej stronie,

Dniem i nocą tęsknię do niej.



Hej, hej...



4. Żal, żal za dziewczyną,

Za zieloną Ukrainą,

żal, żal serce płacze,

że jej więcej nie zobaczę.



Hej, hej...



5. Wina, wina, wina, wina dajcie,

A jak po śmierci pochowajcie

Na zielonej Ukrainie

Przy kochanej mej dziewczynie.



Hej, hej...




----------------------------------------------------------------------------------
Legenda:
| - w tekście pokazuje gdzie trzeba zmienić chwyt a w biciu gdzie zrobić krótką przerwę
v - bicie w duł
^ - bicie w górę




Tabulatura:

zwrotka:
1|-----------0--0--------|--------------1--1--0-----|-----------0--0------------|
2|----1---1--------3--1--|--0--3--0--3-----------3--|----1---1--------3--1------|
3|--2---2----------------|--------------------------|--2---2--------------------|

1|--0--1--0-----------|-----------------|
2|-----------3--1--0--|-----0--1--3-----|
3|--------------------|--2--------------|

refren:
1|--0-0-3-3-1-0-|--3-3-3-3-3-5-3-1-0---|-----------0--0-----------|
2|--------------|--------------------3-|----1---1--------3--1-----|
3|--------------|----------------------|--2---2-------------------|
                       ____          ____
                      |1            |2
1|--0--1--0-----------|-------------|----------------|
2|-----------3--1--0--|----0--1--3--|-----1----------|
3|--------------------|--2----------|--2-----2-------|



-------------------------------------------------------------------------------------------
za jakiś czas postaram się dodać link z filmem.

Dodaj komentarz ...i/lub link do filmiku video

Zaloguj się do serwisu
Ostatnie komentarze
1.
ania62
2013-02-20 18:08
Weście dodajcie filmik jak to powinno wyjsc bo mnie ref. nie wychodzi.
2.
braveheartzac
2012-01-26 18:52
Jeśli ktoś zna refren "Góry, lasy. pola, doły" to: refren: 1|--0-0-3-3-1-0-|--3-3-3-3-3-5-3-1-0---|-----------0--0-----------| 2|--------------|--------------------3-1-0|----1---1--------3--1-----| 3|--------------|----------------------|--2---2-------------------| ____ ____
3.
basiaglownia
2012-01-19 00:47
Rewelacja :) super,że jest propozycja bicia :) bo dla początkujących, z tym mamy największy problem ;)
4.
stacha6
2011-12-29 18:25
Świetne, bardzo mi pomogło ;D Dzięki ;)
5.
matig98
2011-12-09 19:51
Fajne opracowanie, lecz ortografia - okropna. Słownik jak najbardziej wskazany.
Wszelkie materiały i wypowiedzi zamieszczone na www.chords.pl są własnością ich autorów.