Zacznij systematycznie uczyć się grać na gitarze razem ze stroną Moja nauka - będziesz miał/miała do niej dostęp po zalogowaniu się w serwisie

Płonie ognisko i szumią knieje (tab) - Piosenki Harcerskie

Opracował -a: Jakub Toczko,
Dodał -a: Jakub Toczko,
Redaktor: SEBEK1304,
Pochodzi z: http://www.chords.pl/
Data publikacji: 2013-03-23 12:33
 
Moja nauka


Ups, problem :-/
Zaloguj się Mój śpiewnik


E1 |---------0-2-3--|-5-3-2---3-2-0--|-----------0-2--|-----3---2---0--|
H2 |----------------|----------------|-0-------4------|-0--------------|
G3 |----------------|----------------|----------------|----------------|
D4 |----------------|----------------|----------------|----------------|
A5 |----------------|----------------|----------------|----------------|
E6 |----------------|----------------|----------------|----------------|

E1 |---------0-2-3--|-5-3-2---3-2-0--|----------------|-8---7----------|
H2 |----------------|----------------|-0-------4-5-7--|---------4---5--|
G3 |----------------|----------------|----------------|----------------|
D4 |----------------|----------------|----------------|----------------|
A5 |----------------|----------------|----------------|----------------|
E6 |----------------|----------------|----------------|----------------|

E1 |---------3-5-7--|-7---8-7-5-3-7--|-5-------2-3-5--|-5---7-5-3-2-5--|
H2 |----------------|----------------|----------------|----------------|
G3 |----------------|----------------|----------------|----------------|
D4 |----------------|----------------|----------------|----------------|
A5 |----------------|----------------|----------------|----------------|
E6 |----------------|----------------|----------------|----------------|

E1 |-3-------0-2-3--|-3-3-2---3-2-0--|----------------|-8---7----------|
H2 |----------------|----------------|-0-------4-5-7--|---------4---5--|
G3 |----------------|----------------|----------------|----------------|
D4 |----------------|----------------|----------------|----------------|
A5 |----------------|----------------|----------------|----------------|
E6 |----------------|----------------|----------------|----------------|

Dodaj komentarz ...i/lub link do filmiku video

Zaloguj się do serwisu
Wszelkie materiały i wypowiedzi zamieszczone na www.chords.pl są własnością ich autorów.