Zacznij systematycznie uczyć się grać na gitarze razem ze stroną Moja nauka - będziesz miał/miała do niej dostęp po zalogowaniu się w serwisie

Major ponury - Piosenki Harcerskie

Dodał -a: kasienia457,
Redaktor: Tomek Pietrzkowski,
Data publikacji: 2008-11-08 20:32
 
Moja nauka


Ups, problem :-/
Zaloguj się Mój śpiewnik
Intro
    e                D                C               G
e:----------0----------------2----------------0----------------------
B:------0-----0---0------3-----3---3------1-----1---1----------------
G:----0---0-----0------2---2-----2------0---0-----0------------------
D:-------------------0-----------------------------------------------
A:------------------------------------3------------------------------
E:--0--------------------------------------------------3------2------

    e                e
e:----------0----------------0-------------|
B:------0-----0---0------0-----0---0-------|
G:----0---0-----0------0---0-----0---------|
D:-----------------------------------------|
A:-----------------------------------------|
E:--0----------------0---------------------|

Zwrotki 1 i 2
     e               D                C                G
e:----------0----------------2----------------0-------------------------
B:------0-----0---0------3-----3---3------1-----1---1-------------------
G:----0---0-----0------2---2-----2------0---0-----0---------------------
D:-------------------0--------------------------------------------------
A:------------------------------------3---------------------------------
E:--0--------------------------------------------------3------2---------

    e                H                C                D
e:----------0----------------2----------------0----------------2--------
B:------0-----0---0------3-----3---3------1-----1---1------3-----3---3--
G:----0---0-----0------4---4-----4------0---0-----0------2---2-----2----
D:-----------------------------------------------------0----------------
A:-------------------2----------------3---------------------------------
E:--0-------------------------------------------------------------------

    D                x2
e:----------2----------|
B:------3-----3---3----|
G:----2---2-----2------|
D:--0------------------|
A:---------------------|
E:---------------------|

Refreny

e:----------0----------------2----------------0--------------2h3----------
B:------1-----1---1------3-----3---2------0-----0---0------3-----3---3----
G:----0---0-----0------2---2-----2------0---0-----0------2---------2------
D:-------------------0---------------------------------0------------------
A:--3---------------------------------------------------------------------
E:------------------------------------0-----------------------------------
  ..dobrze odpoczniem

e:----------0----------------2----------------0-----------3---2----------|
B:------1-----1---1------3-----3---2------0-----0---0-----3---3----------|
G:----0---0-----0------2---2-----2------0---0-----0----------------------|
D:-------------------0---------------------------------------------------|
A:--3--------------------------------------------------------------------|
E:------------------------------------0----------------------------------|
                                 ........co pan major....

po refrenach

e:-----------0----------------2----------------0----------------0------------|
B:-------0-----0---0------3-----3---3------0-----0---0------0------0---0-----|
G:-----0---0-----0------2---2-----2------0---0-----0------0---0------0-------|
D:--------------------0------------------------------------------------------|
A:---------------------------------------------------------------------------|
E:---0---------------------------------0----------------0--------------------|
 ..ponury   ..yyyyy.......yyyyyyyyyyyy...yyyyyyyy.yyyyyyyyyyyyyyyyyyyyy


Zwrotka 3 (hardcore)

e D C G/D
e H C D/D7


Mgła schodzi z lasu, Panie Majorze,  e D7
Wiatr się zrywa z chaszczy jak ptak, C G
Już się szkopy nie tułają po borze,  e H(lub H7)
Niejednego przez nas trafił szlag    C D

Jutro do wsi pewnie zajdziemy,
Pies nie szczeknie, przecież my swoi,
U mej matuli cokolwiek zjemy,
Potem do snu śpiewanie ukoi

I dobrze odpoczniem nim odejdziem w góry  C D
Lecz co Pan Major taki ponury             e D

Do diabła ze śmiercią, Panie Majorze,
Pan szedł z nią razem w 39,
Potem trza było się z wojskiem łączyć
I miecze ostrzyć daleko za morzem

Myśmy czekali bo wodza brakło,
Lichy to zwierz, co walczy bez oka,
Wieści przysłali i słowo się rzekło,
Biały orzeł z góry spikował

I w piersi wroga wbił swe pazury,
Lecz co Pan Major taki ponury

To nie był taki zwyczajny bój,
Lufa się zgrzała jak klucze od piekła,
Mocno się wrzynał w kieszeni nabój
I każda chwila się w wieczność wlekła

Strasznie Pan dostał, Panie Majorze,
Jak mi Bóg miły nie mogło być gorzej,
Krew się przelała przez głębokie rany,
Archanioł Michał otworzył bramy

Pozdrówcie ode mnie Świętokrzyskie Góry
Szepnął i skonał Major Ponury

Skonał i odszedł by znaleźć swe góry
Z serca bohater Major Ponury...

Dodaj komentarz ...i/lub link do filmiku video

Zaloguj się do serwisu
Ostatnie komentarze
1.
avatar666
2009-02-15 14:59
bardzo dobre opracowanie, tylko w sprawie nazewnictwa to w zwrotce nie ma H tylko h (w tabie za to jest dobrze)
2.
Eliz_a
2008-11-24 14:18
Znam trochę inne chwyty: zwr. e D C7 G e h C D ref. C D e D
Wszelkie materiały i wypowiedzi zamieszczone na www.chords.pl są własnością ich autorów.