Zacznij systematycznie uczyć się grać na gitarze razem ze stroną Moja nauka - będziesz miał/miała do niej dostęp po zalogowaniu się w serwisie

Odpowie ci wiatr (tab) - Piosenki Harcerskie

Dodał -a: MrgaretCullen,
Redaktor: Tomek Pietrzkowski,
Data publikacji: 2010-07-25 11:15
 
Moja nauka


Ups, problem :-/
Zaloguj się Mój śpiewnik
e-----------0--------------------------------0-----------
h--3--3--3-----3--1--3--0--------0--3--3--3-----3--1--3--
g--------------------------2--0--------------------------   x2
d--------------------------------------------------------
a--------------------------------------------------------
e--------------------------------------------------------

e-----------0--------------------------------------------
h--3--3--3-----3--1--3--0--------0--3--3--0--1--1--0-----
g--------------------------2--0-----------------------2--
d--------------------------------------------------------
a--------------------------------------------------------
e--------------------------------------------------------

e-----------------------------------------------------------
h--0--1--1--0--------0--0--------0--1--1--0-----------------
g--------------2--2--------2--0--------------2--2--0-----0--  x2
d-----------------------------------------------------4-----
a-----------------------------------------------------------
e-----------------------------------------------------------

Dodaj komentarz ...i/lub link do filmiku video

Zaloguj się do serwisu
Wszelkie materiały i wypowiedzi zamieszczone na www.chords.pl są własnością ich autorów.