Zacznij systematycznie uczyć się grać na gitarze razem ze stroną Moja nauka - będziesz miał/miała do niej dostęp po zalogowaniu się w serwisie

Zdrajcy metalu - Nocny Kochanek

Opracował -a: MetallicaPl,
Dodał -a: MetallicaPl,
Redaktor: Seba,
Pochodzi z: http://www.chords.pl/
Data publikacji: 2017-06-15 09:49
 
Moja nauka


Ups, problem :-/
Zaloguj się Mój śpiewnik
Intro:

   e |------------------------------------------------------------------------------
   H |------------------------------------------------------------------------------
   G |------------------------------------------------------------------------------
   D |-----------5--3---------------------------5--3--------------------------5--3--
   A |-----------5--3---------------------------5--3--------------------------5--3--
   D |---0-0-0---5--3--0-0-0-0-0-0-0-0--0-0-0---5--3--0-0-0-0-1p0-0-0--0-0-0--5--3--


     |-----------------------------------
     |-----------------------------------
     |-----------------------------------
     |-----------------3-----5-----------
     |-----------------1-----3-----------
     |0-0-0-0-0-0-0-0------------3^------




   e |------------------------------------------------------------------------------
   H |------------------------------------------------------------------------------
   G |------------------------------------------------------------------------------
   D |-----------5--3---------------------------5--3--------------------------5--3--
   A |-----------5--3---------------------------5--3--------------------------5--3--
   D |---0-0-0---5--3--0-0-0-0-0-0-0-0--0-0-0---5--3--0-0-0-0-1p0-0-0--0-0-0--5--3--



     |--------------------------------------
     |--------------------------------3-----
     |--------------------------------2-----
     |-----------------3-----5--------0-----
     |-----------------1-----3--------0-----
     |0-0-0-0-0-0-0-0-----------------0-----


Zwrotka:

     |--------------------------------------------------------------------------------------------
     |--------------------------------------------------------------------------------------------
     |--------------------------------------------------------------------------------------------
     |--3--2--3-------------------3--2--3--3~~----3--2--3-------------------3--2--3--5~~----------  x2
     |--5--3--5-------------------5--3--5--1~~----5--3--5-------------------5--3--5--3~~----------
     |-----------0-0-0-0-0-0-0-0---------------------------0-0-0-0-0-0-0-0------------------------



     |--------------------------------------------------------------------------------------------
     |--------------------------------------------------------------------------------------------
     |---14--12h14p12--10------9--10-----14--12h14p12--10------9--10------------------------------
     |---------------------10------------------------------12-------------------------------------  x2
     |--------------------------------------------------------------------------------------------
     |--------------------------------------------------------------------------------------------





     |--------------------------------------------------------------------------------------------
     |--------------------------------------------------------------------------------------------
     |--------------------------------------------------------------------------------------------
     |--3--2--3-------------------3--2--3--3~~----3--2--3-------------------3--2--3--5~~----------  x2
     |--5--3--5-------------------5--3--5--1~~----5--3--5-------------------5--3--5--3~~----------
     |-----------0-0-0-0-0-0-0-0---------------------------0-0-0-0-0-0-0-0------------------------



     |-------------------------------------------
     |-------------------------------------------
     |-------------------------------------------
     |---3p0-0--2p0-0--3p0-0--5p0-0--3p0-0--2p0--
     |-------------------------------------------
     |-------------------------------------------


     |-------------------------------------------
     |-------------------------------------------
     |-------------------------------------------
     |----7p0-0--5p0-0--3p0-0--2p0-0-3p0--5p0----
     |-------------------------------------------
     |-------------------------------------------
Dodał: MetallicaPl, 2017-06-15 09:49
Opracowania video z komentarzy

Dodaj komentarz ...i/lub link do filmiku video

Zaloguj się do serwisu
Wszelkie materiały i wypowiedzi zamieszczone na www.chords.pl są własnością ich autorów.