Zacznij systematycznie uczyć się grać na gitarze razem ze stroną Moja nauka - będziesz miał/miała do niej dostęp po zalogowaniu się w serwisie

Poniedziałek - Nocny Kochanek

Opracował -a: azpunk,
Dodał -a: azpunk,
Redaktor: Tomek Pietrzkowski,
Data publikacji: 2019-02-03 16:42
 
Moja nauka


Ups, problem :-/
Zaloguj się Mój śpiewnik
E|-------------------------------------------------|
B|-------------------------------------------------|
G|-------------------------------------------------|
D|-0--0--------------------------------------------|
A|-0--0--------------------------------------6--5--|
D|-0--0--0--0--0--0--0--0--1--0--0--3--1--0--------|


E|---------------------------------------|-------------------------------------------------|
B|---------------------------------------|-------------------------------------------------|
G|---------------------------------------|-------------------------------------------------|
D|-0--0--------------------1----4----3---|-0--0--------------------------------------------|
A|-0--0--------------------1----4----3---|-0--0--------------------------------------6--5--|
D|-0--0--0--0--0--0--0--0--1----4----3---|-0--0--0--0--0--0--0--0--1--0--0--3--1--0--------|


E|---------------------------------------|-------------------------------------------|
B|---------------------------------------|-------------------------------------------|
G|---------------------------------------|-------------------------------------------|
D|-0--0--------------------1----4----3---|-7------------------------------8---3---5--|
A|-0--0--------------------1----4----3---|-5------------------------------6---1---3--|
D|-0--0--0--0--0--0--0--0--1----4----3---|-----0--0--0--0--0--0--0--0--0-------------|


E|-------------------------------------------|-------------------------------------------|
B|-------------------------------------------|-------------------------------------------|
G|-------------------------------------------|-------------------------------------------|
D|-0-----------------------------------------|--------------------------------8---3---5--|
A|-0------------------------------8---3---5--|-0------------------------------6---1---3--|
D|-0---0--0--0--0--0--0--0--0--0--8---3---5--|-0---0--0--0--0--0--0--0--0--0-------------|


E|-------------------------------------|-------------------------------------------|
B|-------------------------------------|-------------------------------------------|
G|-------------------------------------|-------------------------------------------|
D|-0--------------------------3----5---|-7------------------------------8---3---5--|
A|-0---------------------1----1----3---|-5------------------------------6---1---3--|
D|-0---0--0--0--0--0--0--1-------------|-----0--0--0--0--0--0--0--0--0-------------|


E|-------------------------------------------|-------------------------------------------|
B|-------------------------------------------|-------------------------------------------|
G|-------------------------------------------|-------------------------------------------|
D|-0-----------------------------------------|--------------------------------8---3---5--|
A|-0------------------------------8---3---5--|-0------------------------------6---1---3--|
D|-0---0--0--0--0--0--0--0--0--0--8---3---5--|-0---0--0--0--0--0--0--0--0--0-------------|


E|-------------------------------------|-------------------------------------------|
B|-------------------------------------|-------------------------------------------|
G|-------------------------------------|-------------------------------------------|
D|-0--------------------------3----5---|-7------------------------------8---3---5--|
A|-0---------------------1----1----3---|-5------------------------------6---1---3--|
D|-0---0--0--0--0--0--0--1-------------|-----0--0--0--0--0--0--0--0--0-------------|


E|-------------------------------------------|-------------------------------------------|
B|-------------------------------------------|-------------------------------------------|
G|-------------------------------------------|-------------------------------------------|
D|-0-----------------------------------------|--------------------------------8---3---5--|
A|-0------------------------------8---3---5--|-0------------------------------6---1---3--|
D|-0---0--0--0--0--0--0--0--0--0--8---3---5--|-0---0--0--0--0--0--0--0--0--0-------------|


E|-------------------------------------|--------------------|--------------------|
B|-------------------------------------|--------------------|--------------------|
G|-------------------------------------|-3----3-------------|--------------------|
D|-0--------------------------3----5---|-3----3----5--5-----|-0----0----3--3-----|
A|-0---------------------1----1----3---|-1----1----5--5-----|-0----0----3--3-----|
D|-0---0--0--0--0--0--0--1-------------|-----------5--5-----|-0----0----3--3-----|


E|--------------------|--------------------|--------------------|--------------------|
B|--------------------|--------------------|--------------------|--------------------|
G|-3----3-------------|--------------------|-3----3-------------|--------------------|
D|-3----3----5--5-----|-0----0----3--3-----|-3----3----5--5-----|-0----0----3--3-----|
A|-1----1----5--5-----|-0----0----3--3-----|-1----1----5--5-----|-0----0----3--3-----|
D|-----------5--5-----|-0----0----3--3-----|-----------5--5-----|-0----0----3--3-----|


E|--------------------|-----------------------------|------------------------------------------|
B|--------------------|-----------------------------|------------------------------------------|
G|-3----3-------------|-----------------------------|------------------------------------------|
D|-3----3----5--5-----|-0----0----3--3----7--5---7--|-7-------7--7-5---5--3---3----3--3----5---|
A|-1----1----5--5-----|-0----0----3--3----5--3---5--|-5-------5--5-3---3--1---1----1--1----3---|
D|-----------5--5-----|-0----0----3--3--------------|------------------------------------------|


E|---------------------------------------------------|------------------------------------------|
B|---------------------------------------------------|------------------------------------------|
G|---------------------------------------------------|------------------------------------------|
D|-5--5-5-5--5-5-5--5-5-5--5-5-5--5-5-5--5--7--5---7-|-7-------7--7-5---5--3---3----3--3----5---|
A|-3--3-3-3--3-3-3--3-3-3--3-3-3--3-3-3--3--5--3---5-|-5-------5--5-3---3--1---1----1--1----3---|
D|---------------------------------------------------|------------------------------------------|


E|---------------------------------------------------|------------------------------------------|
B|---------------------------------------------------|------------------------------------------|
G|---------------------------------------------------|------------------------------------------|
D|-5--5-5-5--5-5-5--5-5-5--5-5-5--5-5-5--5--7--5---7-|-7-------7--7-5---5--3---3----3--3----5---|
A|-3--3-3-3--3-3-3--3-3-3--3-3-3--3-3-3--3--5--3---5-|-5-------5--5-3---3--1---1----1--1----3---|
D|---------------------------------------------------|------------------------------------------|


E|---------------------------------------------------|------------------------------------------|
B|---------------------------------------------------|------------------------------------------|
G|---------------------------------------------------|------------------------------------------|
D|-5--5-5-5--5-5-5--5-5-5--5-5-5--5-5-5--5--7--5---7-|-7-------7--7-5---5--3---3----3--3----5---|
A|-3--3-3-3--3-3-3--3-3-3--3-3-3--3-3-3--3--5--3---5-|-5-------5--5-3---3--1---1----1--1----3---|
D|---------------------------------------------------|------------------------------------------|


E|----------------------------------------------------|---------------------------------------|
B|----------------------------------------------------|---------------------------------------|
G|----------------------------------------------------|---------------------------------------|
D|-5--5-5-5--5-5-5--5-5-5--5-5-5--5-5-5--5--7--5---7--|-7--------------------------8---3---5--|
A|-3--3-3-3--3-3-3--3-3-3--3-3-3--3-3-3--3--5--3---5--|-5--------------------------6---1---3--|
D|----------------------------------------------------|-----0--0--0---0--0--0---0-------------|


E|---------------------------------------|---------------------------------------|
B|---------------------------------------|---------------------------------------|
G|---------------------------------------|---------------------------------------|
D|---------------------------------------|----------------------------8---3---5--|
A|-0--------------------------8---3---5--|-0--------------------------6---1---3--|
D|-0---0--0--0---0--0--0---0--8---3---5--|-0---0--0--0---0--0--0---0-------------|


E|-----------------------------------|-------------------------------------------|
B|-----------------------------------|-------------------------------------------|
G|-----------------------------------|-------------------------------------------|
D|--------------------------3----5---|-7------------------------------8---3---5--|
A|-0-------------------1----1----3---|-5------------------------------6---1---3--|
D|-0---0--0--0---0--0--1-------------|-----0--0--0--0--0--0--0--0--0-------------|


E|-------------------------------------------|-------------------------------------------|
B|-------------------------------------------|-------------------------------------------|
G|-------------------------------------------|-------------------------------------------|
D|-0-----------------------------------------|--------------------------------8---3---5--|
A|-0------------------------------8---3---5--|-0------------------------------6---1---3--|
D|-0---0--0--0--0--0--0--0--0--0--8---3---5--|-0---0--0--0--0--0--0--0--0--0-------------|


E|-------------------------------------|-------------------------------------------|
B|-------------------------------------|-------------------------------------------|
G|-------------------------------------|-------------------------------------------|
D|-0--------------------------3----5---|-7------------------------------8---3---5--|
A|-0---------------------1----1----3---|-5------------------------------6---1---3--|
D|-0---0--0--0--0--0--0--1-------------|-----0--0--0--0--0--0--0--0--0-------------|


E|-------------------------------------------|-------------------------------------------|
B|-------------------------------------------|-------------------------------------------|
G|-------------------------------------------|-------------------------------------------|
D|-0-----------------------------------------|--------------------------------8---3---5--|
A|-0------------------------------8---3---5--|-0------------------------------6---1---3--|
D|-0---0--0--0--0--0--0--0--0--0--8---3---5--|-0---0--0--0--0--0--0--0--0--0-------------|


E|-------------------------------------|--------------------|--------------------|
B|-------------------------------------|--------------------|--------------------|
G|-------------------------------------|-3----3-------------|--------------------|
D|-0--------------------------3----5---|-3----3----5--5-----|-0----0----3--3-----|
A|-0---------------------1----1----3---|-1----1----5--5-----|-0----0----3--3-----|
D|-0---0--0--0--0--0--0--1-------------|-----------5--5-----|-0----0----3--3-----|


E|--------------------|--------------------|--------------------|--------------------|
B|--------------------|--------------------|--------------------|--------------------|
G|-3----3-------------|--------------------|-3----3-------------|--------------------|
D|-3----3----5--5-----|-0----0----3--3-----|-3----3----5--5-----|-0----0----3--3-----|
A|-1----1----5--5-----|-0----0----3--3-----|-1----1----5--5-----|-0----0----3--3-----|
D|-----------5--5-----|-0----0----3--3-----|-----------5--5-----|-0----0----3--3-----|


E|--------------------|-----------------------------|------------------------------------------|
B|--------------------|-----------------------------|------------------------------------------|
G|-3----3-------------|-----------------------------|------------------------------------------|
D|-3----3----5--5-----|-0----0----3--3----7--5---7--|-7-------7--7-5---5--3---3----3--3----5---|
A|-1----1----5--5-----|-0----0----3--3----5--3---5--|-5-------5--5-3---3--1---1----1--1----3---|
D|-----------5--5-----|-0----0----3--3--------------|------------------------------------------|


E|---------------------------------------------------|------------------------------------------|
B|---------------------------------------------------|------------------------------------------|
G|---------------------------------------------------|------------------------------------------|
D|-5--5-5-5--5-5-5--5-5-5--5-5-5--5-5-5--5--7--5---7-|-7-------7--7-5---5--3---3----3--3----5---|
A|-3--3-3-3--3-3-3--3-3-3--3-3-3--3-3-3--3--5--3---5-|-5-------5--5-3---3--1---1----1--1----3---|
D|---------------------------------------------------|------------------------------------------|


E|---------------------------------------------------|------------------------------------------|
B|---------------------------------------------------|------------------------------------------|
G|---------------------------------------------------|------------------------------------------|
D|-5--5-5-5--5-5-5--5-5-5--5-5-5--5-5-5--5--7--5---7-|-7-------7--7-5---5--3---3----3--3----5---|
A|-3--3-3-3--3-3-3--3-3-3--3-3-3--3-3-3--3--5--3---5-|-5-------5--5-3---3--1---1----1--1----3---|
D|---------------------------------------------------|------------------------------------------|


E|---------------------------------------------------|------------------------------------------|
B|---------------------------------------------------|------------------------------------------|
G|---------------------------------------------------|------------------------------------------|
D|-5--5-5-5--5-5-5--5-5-5--5-5-5--5-5-5--5--7--5---7-|-7-------7--7-5---5--3---3----3--3----5---|
A|-3--3-3-3--3-3-3--3-3-3--3-3-3--3-3-3--3--5--3---5-|-5-------5--5-3---3--1---1----1--1----3---|
D|---------------------------------------------------|------------------------------------------|


E|-----------------------------------------------|------------------|---------------------------|
B|-----------------------------------------------|-10-------8-------|-6----5---6-6-5------------|
G|-----------------------------------------------|----7--7-----7--7-|-----------------7---5-----|
D|-5--5-5-5--5-5-5--5-5-5--5-5-5--5-5-5--5--7--5-|------------------|---------------------------|
A|-3--3-3-3--3-3-3--3-3-3--3-3-3--3-3-3--3--5--3-|------------------|---------------------------|
D|-----------------------------------------------|------------------|---------------------------|


E|-------------------------|-------------------------|-----------------------------------|
B|-10----------8-----------|-6------8----8--10-8-----|-10---10----------8----8-----------|
G|-------7--7--------7--7--|-----7-------------------|---------7--7--7----------7--7--7--|
D|-------------------------|-------------------------|-----------------------------------|
A|-------------------------|-------------------------|-----------------------------------|
D|-------------------------|-------------------------|-----------------------------------|


E|-----------------------|------------------------------|---------------------------------------|
B|-6--5--6-6-5-----------|-10-10----------8--8----------|-6-----8------10----8------6---8--6--5-|
G|--------------7---5----|-------7--7--7----_---7--7--7-|----7------7-----7------7--------------|
D|---------------------7-|------------------------------|---------------------------------------|
A|-----------------------|------------------------------|---------------------------------------|
D|-----------------------|------------------------------|---------------------------------------|


E|----------------------------------------------|-----------------------------------------------|
B|-10------8------6-------5-------5--6--5-6-5---|-10-------8-------6-------5------5--6--5-6-5---|
G|----7--7---7--7----7--7---7--7--------------5-|----7--7----7--7----7--7----7--7-------------5-|
D|----------------------------------------------|-----------------------------------------------|
A|----------------------------------------------|-----------------------------------------------|
D|----------------------------------------------|-----------------------------------------------|


E|----------------------------------------------------|-----------------------------------------|
B|-10-------8--------6--------5--------5--6--5-6-5----|-----------6---5-------------8--6--5--6--|
G|----7--7-----7--7-----7--7-----7--7--------------5--|-3---3--3----------5---5--5--------------|
D|----------------------------------------------------|-----------------------------------------|
A|----------------------------------------------------|-----------------------------------------|
D|----------------------------------------------------|-----------------------------------------|


E|----------------------------------------------|-----------------------------------------------|
B|-10------8------6-------5-------5--6--5-6-5---|-10-------8-------6-------5------5--6--5-6-5---|
G|----7--7---7--7----7--7---7--7--------------5-|----7--7----7--7----7--7----7--7-------------5-|
D|----------------------------------------------|-----------------------------------------------|
A|----------------------------------------------|-----------------------------------------------|
D|----------------------------------------------|-----------------------------------------------|


E|----------------------------------------------------|-----------------------------------------|
B|-10-------8--------6--------5--------5--6--5-6-5----|-----------6---5-------------8--6--5--6--|
G|----7--7-----7--7-----7--7-----7--7--------------5--|-3---3--3----------5---5--5--------------|
D|----------------------------------------------------|-----------------------------------------|
A|----------------------------------------------------|-----------------------------------------|
D|----------------------------------------------------|-----------------------------------------|


E|--------------------|--------------------|--------------------|--------------------|
B|--------------------|--------------------|--------------------|--------------------|
G|-3----3-------------|--------------------|-3----3-------------|--------------------|
D|-3----3----5--5-----|-0----0----3--3-----|-3----3----5--5-----|-0----0----3--3-----|
A|-1----1----5--5-----|-0----0----3--3-----|-1----1----5--5-----|-0----0----3--3-----|
D|-----------5--5-----|-0----0----3--3-----|-----------5--5-----|-0----0----3--3-----|


E|--------------------|--------------------|--------------------|-----------------------------|
B|--------------------|--------------------|--------------------|-----------------------------|
G|-3----3-------------|--------------------|-3----3-------------|-----------------------------|
D|-3----3----5--5-----|-0----0----3--3-----|-3----3----5--5-----|-0----0----3--3----7--5---7--|
A|-1----1----5--5-----|-0----0----3--3-----|-1----1----5--5-----|-0----0----3--3----5--3---5--|
D|-----------5--5-----|-0----0----3--3-----|-----------5--5-----|-0----0----3--3--------------|


E|-----------------------------------------|----------------------------------------------------|
B|-----------------------------------------|----------------------------------------------------|
G|-----------------------------------------|----------------------------------------------------|
D|-7-------7--7-5---5--3---3----3--3----5--|-5--5-5-5--5-5-5--5-5-5--5-5-5--5-5-5--5--7--5---7--|
A|-5-------5--5-3---3--1---1----1--1----3--|-3--3-3-3--3-3-3--3-3-3--3-3-3--3-3-3--3--5--3---5--|
D|-----------------------------------------|----------------------------------------------------|


E|-----------------------------------------|----------------------------------------------------|
B|-----------------------------------------|----------------------------------------------------|
G|-----------------------------------------|----------------------------------------------------|
D|-7-------7--7-5---5--3---3----3--3----5--|-5--5-5-5--5-5-5--5-5-5--5-5-5--5-5-5--5--7--5---7--|
A|-5-------5--5-3---3--1---1----1--1----3--|-3--3-3-3--3-3-3--3-3-3--3-3-3--3-3-3--3--5--3---5--|
D|-----------------------------------------|----------------------------------------------------|


E|-----------------------------------------|----------------------------------------------------|
B|-----------------------------------------|----------------------------------------------------|
G|-----------------------------------------|----------------------------------------------------|
D|-7-------7--7-5---5--3---3----3--3----5--|-5--5-5-5--5-5-5--5-5-5--5-5-5--5-5-5--5--7--5---7--|
A|-5-------5--5-3---3--1---1----1--1----3--|-3--3-3-3--3-3-3--3-3-3--3-3-3--3-3-3--3--5--3---5--|
D|-----------------------------------------|----------------------------------------------------|


E|-----------------------------------------|----------------------------------------------------|
B|-----------------------------------------|----------------------------------------------------|
G|-----------------------------------------|----------------------------------------------------|
D|-7-------7--7-5---5--3---3----3--3----5--|-5--5-5-5--5-5-5--5-5-5--5-5-5--5-5-5--5--7--5---7--|
A|-5-------5--5-3---3--1---1----1--1----3--|-3--3-3-3--3-3-3--3-3-3--3-3-3--3-3-3--3--5--3---5--|
D|-----------------------------------------|----------------------------------------------------|


E|-----------------|--------|
B|-----------------|--------|
G|-----------------|--------|
D|-7---7-----7-----|-7------|
A|-5---5-----5-----|-5------|
D|-----------------|--------|
Dodał: azpunk, 2019-02-03 16:43
Opracowania video z komentarzy

Dodaj komentarz ...i/lub link do filmiku video

Zaloguj się do serwisu
Wszelkie materiały i wypowiedzi zamieszczone na www.chords.pl są własnością ich autorów.