Zacznij systematycznie uczyć się grać na gitarze razem ze stroną Moja nauka - będziesz miał/miała do niej dostęp po zalogowaniu się w serwisie

Mariola - Kazik

Opracował -a: damienos,
Dodał -a: damienos,
Redaktor: Seba,
Pochodzi z: http://www.chords.pl/
Data publikacji: 2014-10-26 11:00
 
Moja nauka


Ups, problem :-/
Zaloguj się Mój śpiewnik


intro

E|--10------10------10------10------10------10------10------10----------|
H|-----11------11------11------11------10------10------10------10-------|
G|--------10------10------10------10------10------10------10------10----|
D|----------------------------------------------------------------------|
A|----------------------------------------------------------------------|
E|----------------------------------------------------------------------|


E|--10------10------10------10------12------12------12------12----------|
H|-----11------11------11------11------13------13------13------13-------|
G|--------12------12------12------12------12------12------12------12----|
D|----------------------------------------------------------------------|
A|----------------------------------------------------------------------|
E|----------------------------------------------------------------------|

przez całą piosenkę grane są 4 akordy, najlepiej grać barami

Bb dm gm C

Dodaj komentarz ...i/lub link do filmiku video

Zaloguj się do serwisu
Ostatnie komentarze
1.
tutu60
2014-11-14 09:46
Jedna z moich pierwszych piosenek do nauki ;)
Wszelkie materiały i wypowiedzi zamieszczone na www.chords.pl są własnością ich autorów.