Zacznij systematycznie uczyć się grać na gitarze razem ze stroną Moja nauka - będziesz miał/miała do niej dostęp po zalogowaniu się w serwisie

Alicja - Kazik

Opracował -a: amadeusz,
Redaktor: Tomek Pietrzkowski,
Pochodzi z: http://www.chords.pl
Data publikacji: 2008-01-17 08:43
 
Moja nauka


Ups, problem :-/
Zaloguj się Mój śpiewnik
Zwrotka:
          a  G C

Refren:
          a  G C


Motyw przewodni całego utworu w przełożeniu na gitarę akustyczną:

E||-----------------------|--------------------3--|-----------------0--------|
B||-----------5-----------|-----------------------|--3-----------1-----1-----|
G||--------5--------------|-----------------4-----|-----4-----0-----------0--|
D||-----7-----------------|--------------5--------|--------------------------|
A||-----------------------|-----------------------|--------3-----------------|
E||--5--------------------|-----------3-----------|--------------------------|



------------------5----|-----------3--------3--|-----------------0--------||
-----------5------5----|-----------------------|--3-----------1-----1-----||
--------5--------------|-----------------4-----|-----4-----0-----------0--||
-----7-----------------|--------------5--------|--------------------------||
-----------------------|-----------------------|--------3-----------------||
--5--------------------|-----------3-----------|--------------------------||

Dodaj komentarz ...i/lub link do filmiku video

Zaloguj się do serwisu
Wszelkie materiały i wypowiedzi zamieszczone na www.chords.pl są własnością ich autorów.