Zacznij systematycznie uczyć się grać na gitarze razem ze stroną Moja nauka - będziesz miał/miała do niej dostęp po zalogowaniu się w serwisie

Jak ruchomy cel - Lady Pank

Dodał -a: 120+120,
Data publikacji: 2004-10-20 23:48
 
Moja nauka


Ups, problem :-/
Zaloguj się Mój śpiewnik
Akordy:
C     (x32010)
D     (xx0232)
G     (320033)
h     (224432)
H     (224442)
e     (022000)

Zwrotki grane riffami, refren grany na riffach i akordach


[Intro]

e|-------------------|-0-------------|-------------------
H|---------------3---|---3-------3---|---------------3---
G|-----0---0---0---2-|-----2-0-2---0-|-----0---0---0---2-
D|-2-4---4---4-------|---------------|-2-4---4---4-------
A|-------------------|---------------|-------------------
E|-------------------|---------------|-------------------

[Verse 1]

C                      D     G               h
  Jestem dzieckiem szczęścia, wszyscy mówią tak...
(ostatni wers):
C                 D   H
  Jak samotny myśliwy - jak ruchomy cel

[Chours]

C              D         G
  Za rok będę taki jak dziś

e|-12-12-12-12-10-12-10--------------
H|----------------------12-12-8^10^8-

C                      D       G
  Będę szukał, płakał, kochał, śnił

e|-/12-12-12-12-12-14-12-10-------------
H|--------------------------12-12-8^10^8-

C             D    G
  Za rok będę taki sam

e|-12-12-12-12-10-12-10--------------
H|----------------------12-12-8^10^8-

          e
  Jak zwodzony most

D|-------------0-----
A|-------0-0-2---0-2-
E|-0-3-3-------------

C               D      G
  Za rok znajdę to, co chcę

e|-12-12-12-12-10-12-10--------------
H|----------------------12-12-8^10^8-

C                      D         G
  Będę wiedział więcej niż teraz wiem

e|-/12-12-12-12-12-14-12-10-------------
H|--------------------------12-12-8^10^8-

C               e
  Za rok możesz znaleźć mnie jak chcesz

e|-12-12-12-14-15-14-10----10-
H|----------------------12----


e|--------------------------
H|--------------------------
G|-----0-------0------------
D|---4---4---2---2----------
A|-5-------3-------2-0---5--
E|---------------------3----

[Intro]

[Verse 2]

[Chours]


e|--------------------------|--------
H|--------------------------|-------- x4, za ostatnim razem
G|-----0-------0------------|-------- bez -0-2/5
D|---4---4---2---2----------|--------
A|-5-------3-------2-0---5--|-0-2/5--
E|---------------------3----|--------


[Solo] - brak niestety :(

H
  Jak ruchomy cel

[Chours]

e|--------------------------
H|--------------------------
G|-----0-------0------------
D|---4---4---2---2----------
A|-5-------3-------2-0---5--
E|---------------------3----

[Chours]

e|--------------------------|--------
H|--------------------------|-------- x4,
G|-----0-------0------------|-------- koniec bez -0-2/5
D|---4---4---2---2----------|--------
A|-5-------3-------2-0---5--|-0-2/5--
E|---------------------3----|--------

Dodaj komentarz ...i/lub link do filmiku video

Zaloguj się do serwisu
Ostatnie komentarze
1.
patryk210395
2011-05-28 18:09
Wielkie dzięki :)
Wszelkie materiały i wypowiedzi zamieszczone na www.chords.pl są własnością ich autorów.